Oops, an error
Loading. Please wait.

Goddamn Im Dead Again Tab

version 2
version 2

Whole song

  • I have tabbed Sum 41's Goddamn I'm Dead Again in i... Show more

Interactive

1,399 views 75 this week
4 commentsread comments
1 2 3 4 5
x 5
add to favorites
launch autoscroll
font size
0
reset
how to read this tab
guitar tuner
Autoscroll
slow
fast
+/-
esc
set tempo
stop
Help us to improve Ultimate-Guitar.com Take our survey!
×
Author
Difficulty
Tuning
intermediate
C G C F A D
About this tab version
I have tabbed Sum 41's Goddamn I'm Dead Again in its entirety, with solos, and have provided a chart that explains the symbols that I used with examples. Was this info helpful? Yes No
Intro Riff:
d|----------------|----------------|----------------|--------------------------| 
A|----------------|----------------|----------------|--------------------------|
F|----------------|----------------|----------------|--------------------------|
C|----------------|----------------|----------------|--------------------------|
G|----------------|----------------|-1-1-1-1-1-1-1-1|-3-3-3-3-3-3-3-3----------|
C|-0-0-0-0-0-0-0-0|-5-5-5-5-3-3-3-3|----------------|--------------------------|x4

Verse:
d|----------------|----------------|----------------|----------------|----------| 
A|----------------|----------------|----------------|----------------|----------|
F|-7-7-7-5-7-7-7-5|-7-7-7-7-7-7-7-7|-3-3-3-3-3-3-3-3|-3-3-3-3-3-3-10/|5-5-5-5---|
C|-7-7-7-5-7-7-7-5|-7-7-7-7-7-7-7-7|-3-3-3-3-3-3-3-3|-3-3-3-3-3-3-10/|5-5-5-5---|
G|-5-5-5-3-5-5-5-3|-5-5-5-5-5-5-5-5|-1-1-1-1-1-1-1-1|-1-1-1-1-1-1-8-/|3-3-3-3---|
C|----------------|----------------|----------------|----------------|----------|

d|------|------------------|----------------|---------------|-------------------| 
A|------|------------------|----------------|---------------|-------------------|
F|------|------------------|----------------|---------------|-------------------|
C|-5-5-5|-4-5-5-5-4--------|----------------|---------------|-------------------|
G|-5-5-5|-4-5-5-5-4-7-7-7-7|----------------|1-1-1-1-0-0-0-0|-------------------|
C|-3-3-3|-2-3-3-3-2-4-4-4-4|-0-0-0-2-3-3-3-3|---------------|-------------------|           
Repeat second time till--- Then play what's below:
d|----------------------------------------|----------------|------------------| 
A|-------------------------6-6-6-6-5-5-5-5|-6-6-6-6-8-8-8-8|-6-6-6-6-5-5-5-5--|
F|-------------------------7-7-7-7-7-7-7-7|-7-7-7-7-7-7-7-7|-7-7-7-7-7-7-7-7--|
C|----------------------------------------|----------------|------------------|
G|----------------------------------------|----------------|------------------|
C|----------------------------------------|----------------|------------------|
                                                                                              
d|----------------|-----------------------|------------------------|-------------| 
A|-6-6-6-6-8-8-8-8|-10-10-10-10-8--8--8--8|--10-10-10-10-8--8--8--8|-------------|
F|-7-7-7-7-7-7-7-7|-7—-7—-7—-7--7--7--7--7|--7--7--7--7--7--7--7--7|-------------|
C|----------------|-----------------------|------------------------|-------------|
G|----------------|-----------------------|------------------------|-------------|
C|----------------|-----------------------|------------------------|-------------|

Chorus:
d|----------------|----------------|-----------------------|-------------------|
A|----------------|----------------|-----------------------|-------------------|
F|-7-7---7-7-7-7-7|-3-3---3-3-3-3-3|-10-10---10-10-10-10-10|-5-5---5-5-5-5-5---|
C|-7-7---7-7-7-7-7|-3-3---3-3-3-3-3|-10-10---10-10-10-10-10|-5-5---5-5-5-5-5---|
G|-5-5---5-5-5-5-5|-1-1---1-1-1-1-1|-8--8----8--8--8--8--8-|-3-3---3-3-3-3-3---|
C|----------------|----------------|-----------------------|-------------------|

d|----------------|----------------|-----------------------|-------------------|
A|----------------|----------------|-----------------------|-------------------|
F|-7-7---7-7-7-7-7|-3-3---3-3-3-3-3|-10-10---10-10-10-10-10|-5-5-5-5-7-7-7-7---|
C|-7-7---7-7-7-7-7|-3-3---3-3-3-3-3|-10-10---10-10-10-10-10|-5-5-5-5-7-7-7-7---|
G|-5-5---5-5-5-5-5|-1-1---1-1-1-1-1|-8--8----8--8--8--8--8-|-3-3-3-3-4-4-4-4---|
C|----------------|----------------|-----------------------|-------------------|

Bridge:
d|-17-15-13----13-15|-17-15-13----13-15-|-17-15-13----13-15|-17-15-13----13-15|
A|----------15------|----------15-------|----------15------|----------15------|
F|------------------|-------------------|------------------|------------------|
C|------------------|-------------------|------------------|------------------|
G|------------------|-------------------|------------------|------------------|
C|------------------|-------------------|------------------|------------------|

d|17-17-17-18-18-18|-17-17-17-15-15-15|-17-15-13-17-15-13|-15-13-12-15-13-12-----|
A|-----------------|------------------|------------------|-------------------15/-|
F|-----------------|------------------|------------------|-----------------------|
C|-----------------|------------------|------------------|-----------------------|
G|-----------------|------------------|------------------|-----------------------|
C|-----------------|------------------|------------------|-----------------------|

d|--------------------------------------------------------------------------|
A|--------------------------------------------------------------------------|
F|-7------2-2-2-7------2-2-2-7------2-2-2-7---7-----------------------------|
C|-7------2-2-2-7------2-2-2-7------2-2-2-7---7-----------------------------|
G|-5------0-0-0-5------0-0-0-5------0-0-0-5---5-----------------------------|
C|--------------------------------------------------------------------------|
Play Chorus again twice, then play Intro Riff twice.


Solo A:
Played with wah pedal.
d|------------------|------------------|-----------------------|---------------------------|
A|-13----13----13---|-13----13----13---|---13p10----10-13p10---|-10-13p10----10-13p10----10|
F|-12b13-12b13-12b13|-12b13-12b13-12b13|---------12----------12|----------12----------12---|
C|------------------|------------------|-----------------------|---------------------------|
G|------------------|------------------|-----------------------|---------------------------|
C|------------------|------------------|-----------------------|---------------------------|

d|------------------------|------------|
A|-13p10----10-13p10----10|-13b15-13b15|
F|-------12----------12---|------------|
C|------------------------|------------|
G|------------------------|------------|
C|------------------------|------------|

d|-17-15-13-17-15-13|-17-15-13-17-15-13|-13-12-10-13-12-10|-13-12-10-13-12-10--|
A|------------------|------------------|------------------|--------------------|
F|------------------|------------------|------------------|--------------------|
C|------------------|------------------|------------------|--------------------|
G|------------------|------------------|------------------|--------------------|
C|------------------|------------------|------------------|--------------------|

d|-17-15-13-17-15-13|-13-12-10-13-12-10|-12-10-9-12-10-9|-12-10-9-12-10-9------|
A|------------------|------------------|----------------|----------------------|
F|------------------|------------------|----------------|----------------------|
C|------------------|------------------|----------------|----------------------|
G|------------------|------------------|----------------|----------------------|
C|------------------|------------------|----------------|----------------------|

d|---------|----------------------------|---------------------------|----------|
A|-13b15~~~|--13b15-13-11-10-11-10h11p10|---------------------------|----------|
F|---------|----------------------------|-12-12-10-12-10----10------|----------|
C|---------|----------------------------|----------------12----12-10|----------|
G|---------|----------------------------|---------------------------|----------|
C|---------|----------------------------|---------------------------|----------|

d|------------------|------------------|--------------|----------------------------|---------------------|
A|------------------|-------------10-11|-11~~~~~~~~-10|--11-11h13-11-10h11p10-11-10|---------------------|
F|------------------|-------10-12------|--------------|----------------------------|--10h12p10-12b14~~~--|
C|------------------|-10-12------------|--------------|----------------------------|---------------------|
G|----------10-12-13|------------------|--------------|----------------------------|---------------------|
C|-12-14-15---------|------------------|--------------|----------------------------|---------------------|
 PM[…………………………………………………………]

Solo B:
d|-17p13----------13|-17p13----------13|-18p15----------15|-18p15----------15--|
A|-------15----15---|-------15----15---|-------16----16---|-------16----16-----|
F|----------14------|----------14------|----------15------|----------15--------|
C|------------------|------------------|------------------|--------------------|
G|------------------|------------------|------------------|--------------------|
C|------------------|------------------|------------------|--------------------|

d|-17-17-17-17-18-18-18-18|-17-17-17-17-15-15-15-15|-17-17-18-18-17-17-15-15--|
A|------------------------|------------------------|--------------------------|
F|------------------------|------------------------|--------------------------|
C|------------------------|------------------------|--------------------------|
G|------------------------|------------------------|--------------------------|
C|------------------------|------------------------|--------------------------|

d|-17-17-18-18-17-17-15-15--------------------------------------------------|
A|--------------------------------------------------------------------------|
F|--------------------------------------------------------------------------|
C|--------------------------------------------------------------------------|
G|--------------------------------------------------------------------------|
C|--------------------------------------------------------------------------|

d|-17p13----------13|-17p13----------13|-18p15----------15|-18p15----------15--|
A|-------15----15---|-------15----15---|-------16----16---|-------16----16-----|
F|----------14------|----------14------|----------15------|----------15--------|
C|------------------|------------------|------------------|--------------------|
G|------------------|------------------|------------------|--------------------|
C|------------------|------------------|------------------|--------------------|

d|-17-17-17-17-18-18-18-18|-17-17-17-17-15-15-15-15|-17-17-18-18-17-17-15-15--|
A|------------------------|------------------------|--------------------------|
F|------------------------|------------------------|--------------------------|
C|------------------------|------------------------|--------------------------|
G|------------------------|------------------------|--------------------------|
C|------------------------|------------------------|--------------------------|

d|-17-17-18-18-20-20-18-18|-20/22~~~-----------------------------------------|
A|------------------------|--------------------------------------------------|
F|------------------------|--------------------------------------------------|
C|------------------------|--------------------------------------------------|
G|------------------------|--------------------------------------------------|
C|------------------------|--------------------------------------------------|






Twin Solo A:
Guitar 1(Left):
d|--------|--------------------|---------------------|-------------------------|
A|--------|--------------------|---------------------|-------------------------|
F|-/10~~~-|12b14-12-10---------|-12b14-12-10-14-10---|--14-10------------------|
C|--------|------------10h12~~~|-------------------10|--------10---------------|
G|--------|--------------------|---------------------|-------------------------|
C|--------|--------------------|---------------------|-------------------------|

d|--------------------------------------------------------------------------|
A|--------------------------------------------------------------------------|
F|-14-9-----14-9------------------------------------------------------------|
C|------11-------11---------------------------------------------------------|
G|--------------------------------------------------------------------------|
C|--------------------------------------------------------------------------|

d|--------|--------------------|---------------------------|-------------------|
A|--------|------------13h15~~~|-13h15-13h15p13-11-13-10---|--13-10------------|
F|-/10~~~-|12b14-12-10---------|-------------------------10|--------10---------|
C|--------|--------------------|---------------------------|-------------------|
G|--------|--------------------|---------------------------|-------------------|
C|--------|--------------------|---------------------------|-------------------|

d|--------------------------------------------------------------------------|
A|-14-10----14-10-----------------------------------------------------------|
F|-------9--------9---------------------------------------------------------|
C|--------------------------------------------------------------------------|
G|--------------------------------------------------------------------------|
C|--------------------------------------------------------------------------|
Guitar 2(Right):
d|-/13~~~-|15b17-15-13-13~~~|-13-12-10-13-8---|--13-8--------------------------|
A|--------|-----------------|---------------10|-------10-----------------------|
F|--------|-----------------|-----------------|--------------------------------|
C|--------|-----------------|-----------------|--------------------------------|
G|--------|-----------------|-----------------|--------------------------------|
C|--------|-----------------|-----------------|--------------------------------|

d|-12-9-----12-9------------------------------------------------------------|
A|------10-------10---------------------------------------------------------|
F|--------------------------------------------------------------------------|
C|--------------------------------------------------------------------------|
G|--------------------------------------------------------------------------|
C|--------------------------------------------------------------------------|

d|-/13~~~-|15b17-15-13-/13~~~|-12h13-12h13p12-10-12-8---|-12-8----12-9---|-12-9-----|
A|--------|------------------|------------------------10|------10------10|------10--|
F|--------|------------------|--------------------------|----------------|----------|
C|--------|------------------|--------------------------|----------------|----------|
G|--------|------------------|--------------------------|----------------|----------|
C|--------|------------------|--------------------------|----------------|----------|


Twin Solo B:
Guitar 1(Left):
d|------------------|------------------|---------------|-----------------------|
A|-10-------10------|-10-------10------|-11p10---------|-10-------10-----------|
F|----10-------10---|----10-------10---|-------12-10-12|----10-------10--------|
C|-------12-------12|-------12-------12|---------------|-------12-------12-----|
G|------------------|------------------|---------------|-----------------------|
C|------------------|------------------|---------------|-----------------------|

d|--------------------------------------------------------------------------|
A|-10----13/15~~~-----------------------------------------------------------|
F|----10--------------------------------------------------------------------|
C|--------------------------------------------------------------------------|
G|--------------------------------------------------------------------------|
C|--------------------------------------------------------------------------|

d|------------------|------------------|--------------|------------------------|
A|------------------|------------------|--------------|------------------------|
F|-10-------10------|-10-------10------|-10p9---------|-9--------9-------------|
C|----10-------10---|----10-------10---|------12-10-12|---11-------11----------|
G|-------12-------12|-------12-------12|--------------|------12-------12-------|
C|------------------|------------------|--------------|------------------------|

d|--------------------------------------------------------------------------|
A|--------------------------------------------------------------------------|
F|-9----12/14~~~------------------------------------------------------------|
C|---11---------------------------------------------------------------------|
G|--------------------------------------------------------------------------|
C|--------------------------------------------------------------------------|
Guitar 2(Right):
d|------------------|------------------|---------------|-----------------------|
A|-15-------15------|-15-------15------|-15p13---------|-15-------15-----------|
F|----14-------14---|----14-------14---|-------15-14-15|----14-------14--------|
C|-------15-------15|-------15-------15|---------------|-------15-------15-----|
G|------------------|------------------|---------------|-----------------------|
C|------------------|------------------|---------------|-----------------------|

d|--------------------------------------------------------------------------|
A|-15-----------------------------------------------------------------------|
F|----14-17/18~~~-----------------------------------------------------------|
C|--------------------------------------------------------------------------|
G|--------------------------------------------------------------------------|
C|--------------------------------------------------------------------------|

d|-13-------13------|-13-------13------|-13p12---------|-12-------12-----------|
A|----13-------13---|----13-------13---|-------15-13-15|----14-------14--------|
F|-------14-------14|-------14-------14|---------------|-------14-------14-----|
C|------------------|------------------|---------------|-----------------------|
G|------------------|------------------|---------------|-----------------------|
C|------------------|------------------|---------------|-----------------------|




d|-12-----------------------------------------------------------------------|
A|----14-13h14~~~-----------------------------------------------------------|
F|--------------------------------------------------------------------------|
C|--------------------------------------------------------------------------|
G|--------------------------------------------------------------------------|
C|--------------------------------------------------------------------------|


Twin Solo C:
Very Similar to Twin Solo B but the last few notes are different.
Guitar 1(Left):
d|------------------|------------------|---------------|------------------------|-----------------|
A|-10-------10------|-10-------10------|-11p10---------|-10b11b10----10---------|-13/15~~~--------|
F|----10-------10---|----10-------10---|-------12-10-12|----------12----12-10-12|-----------------|
C|-------12-------12|-------12-------12|---------------|------------------------|-----------------|
G|------------------|------------------|---------------|------------------------|-----------------|
C|------------------|------------------|---------------|------------------------|-----------------|

d|------------------|------------------|--------------|---------------------|---------------------|
A|------------------|------------------|--------------|---------------------|---------------------|
F|-10-------10------|-10-------10------|-10p9---------|-9b10b9----9---------|-12/14~~~------------|
C|----10-------10---|----10-------10---|------12-10-12|--------12---12-10-12|---------------------|
G|-------12-------12|-------12-------12|--------------|---------------------|---------------------|
C|------------------|------------------|--------------|---------------------|---------------------|

Guitar 2(Right):
d|------------------|------------------|---------------|------------------------|-----------------|
A|-15-------15------|-15-------15------|-15p13---------|-13b15b13----13---------|-17/18~~~--------|
F|----14-------14---|----14-------14---|-------15-14-15|----------15----15-14-15|-----------------|
C|-------15-------15|-------15-------15|---------------|------------------------|-----------------|
G|------------------|------------------|---------------|------------------------|-----------------|
C|------------------|------------------|---------------|------------------------|-----------------|

d|-13-------13------|-13-------13------|-13p12---------|-12b13b12----12---------|-----------------|
A|----13-------13---|----13-------13---|-------15-13-15|----------15----15-13-15|-13h14~~~--------|
F|-------14-------14|-------14-------14|---------------|------------------------|-----------------|
C|------------------|------------------|---------------|------------------------|-----------------|
G|------------------|------------------|---------------|------------------------|-----------------|
C|------------------|------------------|---------------|------------------------|-----------------|


/ = Slide (Ex. 13/15 = Slide from 13th fret to 15th).
b = Bend (Ex. 13b15 = Bend 13th fret to sound like 15th).
h = Hammer-on (Ex. 13h15 = Hammer from 13th on to 15th).
p = Pull-off (Ex. 15p13 = Pull off from 15th to 13th).
~ = Hold note (Ex. 14~~~ = Hold 14th fret).

PM = Palm Mute (Ex. PM[……] = Palm mute the notes within the brackets).

Suggest correction
comments
print report bad tab
4 comments total. Showing first comments.
+1 reply
neurofix 10 Oct 15, 2016 10:57 AM

Good Job !
Thanks a lot :)

+1 reply
CatWithAMustach 652 Oct 16, 2016 10:45 PM

I think the riff is all on the C string, it sounds a lot better sliding up and down from note to note.

0 reply
sorariku2002 40 Oct 17, 2016 06:56 PM

It could be played either way. I see what you're saying, though.

guest
You may want to rate the tab now too:
select rating
Wanna post a correction for this tab? Suggest correction