Oops, an error
Loading. Please wait.

Grab The Devil By The Horns Bass Tab

version 1
version 1

Whole song

490 views 1 this week
no commentswrite comment
1 2 3 4 5
3 more votes to show rating
add to favorites
launch autoscroll
font size
0
reset
guitar tuner
Autoscroll
slow
fast
+/-
esc
set tempo
stop
Help us to improve Ultimate-Guitar.com Take our survey!
×
Difficulty
intermediate
By SoF
G|---------------------------------------------------------------------------|
D|---------------------------------------------------------------------------|
A|-------2-------------------------------------------------------------------|
E|-3-2-0---2-3-0-------------------------------------------------------------|
	
G|---------------------------------------------------------------------------|
D|---------------------------------------------------------------------------|
A|-7-------------------5-------------------3---------------------------------|
E|---------------------------------------------------------------------------|
	
G|---------------------------------------------------------------------------|
D|---------------------------------------------------------------------------|
A|-------2-------------------------------------------------------------------|
E|-3-2-0---2-3-0-------------------------------------------------------------|

G|---------------------------------------------------------------------------|
D|---------------------------------------------------------------------------|
A|-7-------------------5-------------------3---------------------------------|
E|---------------------------------------------------------------------------|
	
G|---------------------------------------------------------------------------|
D|---------------------------------------------------------------------------|
A|-------2-------------------------------------------------------------------|
E|-3-2-0---2-3-0-------------------------------------------------------------|

G|---------------------------------------------------------------------------|
D|---------------------------------------------------------------------------|
A|-7-7-7-7-7-7-7-7-7-7-5-5-5-5-5-5-5-5-5-5-3-3-3-3-3-3-3-3-3-3---------------|
E|---------------------------------------------------------------------------|

G|---------------------------------------------------------------------------|
D|---------------------------------------------------------------------------|
A|-------2-------------------------------------------------------------------|
E|-3-2-0---2-3-0-------------------------------------------------------------|
	
G|---------------------------------------------------------------------------|
D|---------------------------------------------------------------------------|
A|-7-7-7-7-7-7-7-7-7-7-5-5-5-5-5-5-5-5-5-5-3-3-3-3-3-3-3-3-3-3---------------|
E|---------------------------------------------------------------------------|
	
G|----------------|----------------------------------------------------------|
D|----------------|----------------------------------------------------------|
A|-------2--------|Let-Ring--------------------------------------------------|
E|-3-2-0---2-3-0--|----------------------------------------------------------|

G|---------------------------------------------------------------------------|
D|---------------------------------------------------------------------------|
A|-----2---------------------------------------------------------------------|
E|-3-2---2-0-----------------------------------------------------------------|

G|---------------------------------------------------------------------------|
D|---------------------------------------------------------------------------|
A|-777-777-777-777-777-777---------------------------------------------------|
E|---------------------------------------------------------------------------|

G|---------------------------------------------------------------------------|
D|---------------------------------------------------------------------------|
A|-----2---------------------------------------------------------------------|
E|-3-2---2-0-----------------------------------------------------------------|

G|---------------------------------------------------------------------------|
D|---------------------------------------------------------------------------|
A|-777-777-777-777-777-777---------------------------------------------------|
E|---------------------------------------------------------------------------|

G|---------------------------------------------------------------------------|
D|---------------------------------------------------------------------------|
A|-----2---------------------------------------------------------------------|
E|-3-2---2-0-----------------------------------------------------------------|


G|---------------------------------------------------------------------------|
D|---------------------------------------------------------------------------|
A|-777-777-777-7-5-0-777-777-------------------------------------------------|
E|---------------------------------------------------------------------------|

G|---------------------------------------------------------------------------|
D|---------------------------------------------------------------------------|
A|-----2---------------------------------------------------------------------|
E|-3-2---2-0-----------------------------------------------------------------|

G|----------------------------|----------------------------------------------|
D|----------------------------|----------------------------------------------|
A|-777-777-777-7-5-0-777-777--|--Let-Ring------------------------------------|
E|----------------------------|----------------------------------------------|

===============================================================================
Suggest correction
Give kudos to tab author, rate the tab!
1 2 3 4 5
comments
print report bad tab
guest
You may want to rate the tab now too:
select rating
Wanna post a correction for this tab? Suggest correction