Oops, an error
Loading. Please wait.

Grab The Devil By The Horns Chords

version 1
version 1

Whole song

422 views 3 this week
no commentswrite comment
1 2 3 4 5
please rate
add to favorites
launch autoscroll
font size
0
reset
transpose
0
reset
- display chords -
guitar tuner
Tab Pro tools
  • play this tab
  • loop segment
  • change instrument
  • show fretboard
  • metronome
Autoscroll
slow
fast
+/-
esc
set tempo
stop
Contributor
Sum 41
Grab The Devil By Its Horns
And Fuck Him In The Ass
Half Hour Power
2000
Submitted by: paramore_fans@yahoo.com

Key: G

Tuning: Standard EADGBe

Chords used:
Em - 022000
D -  xx0232
C -  x32010
B -  x24442
G -  320033
F# - 244322
C# - x46664


Deryck:
         Em          G   F#  Em  B   G
e|-0-2-3-5-3-2-0---|-3-|-2-|-0-|---|-0-|-2-|
B|---------------3-|---|---|---|-4-|---|---|
G|-----------------|---|---|---|---|---|---|
D|-----------------|---|---|---|---|---|---|
A|-----------------|---|---|---|---|---|---|
E|-----------------|---|---|---|---|---|---|
         x7
              Em                           D                           C
e|---------------------------|---------------------------|---------------------------|
B|---------------------------|---------------------------|---------------------------|
G|-9-------------------------|-7-------------------------|-5-------------------------|
D|-9-------------------------|-7-------------------------|-5-------------------------|
A|-7--7-7-7--7-7-7--7-7-7--7-|-5--5-5-5--5-5-5--5-5-5--5-|-3--3-3-3--3-3-3--3-3-3--3-|
E|---------------------------|---------------------------|---------------------------|

   G   F#  Em  B   F#  G
e|-3-|-2-|-0-|---|-0-|-2-|
B|---|---|---|-4-|---|---|
G|---|---|---|---|---|---|
D|---|---|---|---|---|---|
A|---|---|---|---|---|---|
E|---|---|---|---|---|---|

              Em                           D                           C
e|---------------------------|---------------------------|---------------------------|
B|---------------------------|---------------------------|---------------------------|
G|-9-------------------------|-7-------------------------|-5-------------------------|
D|-9-------------------------|-7-------------------------|-5-------------------------|
A|-7--7-7-7--7-7-7--7-7-7--7-|-5--5-5-5--5-5-5--5-5-5--5-|-3--3-3-3--3-3-3--3-3-3--3-|
E|---------------------------|---------------------------|---------------------------|

   G   F#  Em  B   F#  G
e|-3-|-2-|-0-|---|-0-|-2-|
B|---|---|---|-4-|---|---|
G|---|---|---|---|---|---|
D|---|---|---|---|---|---|
A|---|---|---|---|---|---|
E|---|---|---|---|---|---|

         Em                 D                 C
e|-0-2-3-5-3-2-0---|-0-2-3-5-3-2-0---|-0-2-3-5-3-2-0---|
B|---------------3-|---------------3-|---------------3-|
G|-----------------|-----------------|-----------------|
D|-----------------|-----------------|-----------------|
A|-----------------|-----------------|-----------------|
E|-----------------|-----------------|-----------------|

   G   F#  Em  B   F#  G
e|-3-|-2-|-0-|---|-0-|-2-|
B|---|---|---|-4-|---|---|
G|---|---|---|---|---|---|
D|---|---|---|---|---|---|
A|---|---|---|---|---|---|
E|---|---|---|---|---|---|

         Em                 D                 C
e|-0-2-3-5-3-2-0---|-0-2-3-5-3-2-0---|-0-2-3-5-3-2-0---|
B|---------------3-|---------------3-|---------------3-|
G|-----------------|-----------------|-----------------|
D|-----------------|-----------------|-----------------|
A|-----------------|-----------------|-----------------|
E|-----------------|-----------------|-----------------|

   G   F#  Em  B   F#  G G   F#  B   G
e|-3-|-2-|-0-|---|-0-|-2-|---|------|---|---|---|---|
B|---|---|---|-4-|---|---|---|------|---|---|---|---|
G|---|---|---|---|---|---|---|------|---|---|---|---|
D|---|---|---|---|---|---|-2-|------|---|---|-4-|---|
A|---|---|---|---|---|---|-2-|-4/16-|-5-|-4-|-2-|-5-|
E|---|---|---|---|---|---|-0-|------|-3-|-2-|---|-3-|

      Em       G   F#  B   G     G   F#  B   G
e|-----------|---|---|---|---|-----------|---|---|---|---|
B|-----------|---|---|---|---|-----------|---|---|---|---|
G|-----------|---|---|-4-|---|-----------|---|---|---|---|
D|---------2-|---|---|-2-|---|---------2-|---|---|-4-|---|
A|---------2-|-5-|-4-|---|-5-|---------2-|-5-|-4-|-2-|-5-|
E|-0-0-0-0-0-|-3-|-2-|---|-3-|-0-0-0-0-0-|-3-|-2-|---|-3-|
      x6                          x6

                  Em                    D            Em
e|------------------------------------|---|----------------------|
B|------------------------------------|---|----------------------|
G|------------------------------------|---|----------------------|
D|------------------------------------|---|----------------------|
A|---------7----------7----------7--7-|-5-|---------7----------7-|
E|-0-0-0-0----0-0-0-0----0-0-0-0------|---|-0-0-0-0----0-0-0-0---|

   G   F#  B   G
e|---|---|---|---|
B|---|---|---|---|
G|---|---|---|---|
D|---|---|-4-|---|
A|-5-|-4-|-2-|-5-|
E|-3-|-2-|---|-3-|

                    Em                      D           Em
e|----------------------------------------|---|----------------------|
B|----------------------------------------|---|----------------------|
G|----------------------------------------|---|----------------------|
D|----------------------------------------|---|----------------------|
A|---------7----------7----------7--7h9p7-|-5-|---------7----------7-|
E|-0-0-0-0----0-0-0-0----0-0-0-0----------|---|-0-0-0-0----0-0-0-0---|

   G   F#  B   G   Em
e|---|---|---|---|---|
B|---|---|---|---|---|
G|---|---|---|---|---|
D|---|---|-4-|---|-2-|
A|-5-|-4-|-2-|-5-|-2-|
E|-3-|-2-|---|-3-|-0-|


Dave:
         Em          G   F#  Em  B   
 G
e|-7-5-7-8-7-5-----|-7-|-5-|---|---|---|-5-|
B|-------------8-7-|---|---|-8-|-7-|-8-|---|
G|-----------------|---|---|---|---|---|---|
D|-----------------|---|---|---|---|---|---|
A|-----------------|---|---|---|---|---|---|
E|-----------------|---|---|---|---|---|---|
        x3

              Em                           D                           C
e|---------------------------|---------------------------|---------------------------|
B|---------------------------|---------------------------|---------------------------|
G|-9-------------------------|-7-------------------------|-5-------------------------|
D|-9-------------------------|-7-------------------------|-5-------------------------|
A|-7--7-7-7--7-7-7--7-7-7--7-|-5--5-5-5--5-5-5--5-5-5--5-|-3--3-3-3--3-3-3--3-3-3--3-|
E|---------------------------|---------------------------|---------------------------|

   G   F#  Em  B   F#  G
e|-7-|-5-|---|---|---|-5-|
B|---|---|-8-|-7-|-8-|---|
G|---|---|---|---|---|---|
D|---|---|---|---|---|---|
A|---|---|---|---|---|---|
E|---|---|---|---|---|---|

              Em                           D                           C
e|---------------------------|---------------------------|---------------------------|
B|---------------------------|---------------------------|---------------------------|
G|---------------------------|---------------------------|---------------------------|
D|-5--5-5-5--5-5-5--5-5-5--5-|-4--4-4-4--4-4-4--4-4-4--4-|-2--2-2-2--2-2-2--2-2-2--2-|
A|---------------------------|---------------------------|---------------------------|
E|---------------------------|---------------------------|---------------------------|

   G   F#  Em  B   F#  G
e|-7-|-5-|---|---|---|-5-|
B|---|---|-8-|-7-|-8-|---|
G|---|---|---|---|---|---|
D|---|---|---|---|---|---|
A|---|---|---|---|---|---|
E|---|---|---|---|---|---|

         Em                 D                 C
e|-7-5-7-8-7-5-----|-7-5-7-8-7-5-----|-7-5-7-8-7-5-----|
B|-------------8-7-|-------------8-7-|-------------8-7-|
G|-----------------|-----------------|-----------------|
D|-----------------|-----------------|-----------------|
A|-----------------|-----------------|-----------------|
E|-----------------|-----------------|-----------------|

   G   F#  Em  B   F#  G
e|-7-|-5-|---|---|---|-5-|
B|---|---|-8-|-7-|-8-|---|
G|---|---|---|---|---|---|
D|---|---|---|---|---|---|
A|---|---|---|---|---|---|
E|---|---|---|---|---|---|

         Em                 D                 C
e|-7-5-7-8-7-5-----|-7-5-7-8-7-5-----|-7-5-7-8-7-5-----|
B|-------------8-7-|-------------8-7-|-------------8-7-|
G|-----------------|-----------------|-----------------|
D|-----------------|-----------------|-----------------|
A|-----------------|-----------------|-----------------|
E|-----------------|-----------------|-----------------|

   G   F#  Em  B   F#  G   Em
e|-7-|-5-|---|---|---|-5-|---|
B|---|---|-8-|-7-|-8-|---|---|
G|---|---|---|---|---|---|---|
D|---|---|---|---|---|---|-2-|
A|---|---|---|---|---|---|-2-|
E|---|---|---|---|---|---|-0-|

      Em       G   F#  B   G     G   F#  B   G
e|-----------|---|---|---|---|-----------|---|---|---|---|
B|-----------|---|---|---|---|-----------|---|---|---|---|
G|-----------|---|---|-4-|---|-----------|---|---|---|---|
D|---------2-|---|---|-2-|---|---------2-|---|---|-4-|---|
A|---------2-|-5-|-4-|---|-5-|---------2-|-5-|-4-|-2-|-5-|
E|-0-0-0-0-0-|-3-|-2-|---|-3-|-0-0-0-0-0-|-3-|-2-|---|-3-|
      x6                          x6

                    Em                      D            Em
e|----------------------------------------|---|------------------------|
B|----------------------------------------|---|------------------------|
G|----------------------------------------|---|------------------------|
D|----------------------------------------|---|------------------------|
A|---------10----------10----------10--10-|-9-|---------10----------10-|
E|-0-0-0-0-----0-0-0-0-----0-0-0-0--------|---|-0-0-0-0-----0-0-0-0----|

   G   F#  B   G
e|---|---|---|---|
B|---|---|---|---|
G|---|---|---|---|
D|---|---|-4-|---|
A|-5-|-4-|-2-|-5-|
E|-3-|-2-|---|-3-|

                        Em                        D             Em
e|----------------------------------------------|---|------------------------|
B|----------------------------------------------|---|------------------------|
G|----------------------------------------------|---|------------------------|
D|----------------------------------------------|---|------------------------|
A|---------10----------10----------10--10h12p10-|-9-|---------10----------10-|
E|-0-0-0-0-----0-0-0-0-----0-0-0-0--------------|---|-0-0-0-0-----0-0-0-0----|

   G   F#  B   G   Em
e|---|---|---|---|---|
B|---|---|---|---|---|
G|---|---|---|---|---|
D|---|---|-4-|---|-2-|
A|-5-|-4-|-2-|-5-|-2-|
E|-3-|-2-|---|-3-|-0-|
comments
We did not receive enough feedback on this tab! Please rate:
print report bad tab
1 2 3 4 5
I want to post or [tab]
guest
You may want to rate the tab now too:
select rating
Please do not post tabs as comments. Select "correction" instead!