Oops, an error
Loading. Please wait.

Grab The Devil By The Horns Tab

version 2
version 2
13,090 views 3 this week
6 commentsread comments
1 2 3 4 5
excellent!
x 17
add to favorites
launch autoscroll
font size
0
reset
how to read this tab
guitar tuner
Autoscroll
slow
fast
+/-
esc
set tempo
stop
Help us to improve Ultimate-Guitar.com Take our survey!
×
Author
i tabbed this and it sounds pretty much right. ver1 is pretty good but hes missing a 
lot of parts so im gonna put them in. NeoMan123:

Intro 1st guitar 7(x)
e:-0-2-3-5-3-2-0---
B:---------------3-
G:-----------------
D:-----------------
A:-----------------
E:-----------------


Intro 2nd guitar come in after 4th time
e:-7-5-7-8-7-5-----
B:-------------8-7-
G:-----------------
D:-----------------
A:-----------------
E:-----------------


riff 1 1st guitar
e:----------------------
B:----------------------
G:-------4--------------
D:-5-4-2-4-4-5----------
A:-5-4-2-2-4-5----------
E:-3-2-0---2-3----------


riff 1 2nd guitar
e:-3-2-0-7-2-3--
B:--------------
G:--------------
D:--------------
A:--------------
E:--------------


riff 2 1st guitar
e:--------------------------------------------------------
B:--------------------------------------------------------
G:--------------------------------------------------------
D:-9-----------------7-----------------5------------------
A:-7-7-7-7-7-7-7-7-7-5-5-5-5-5-5-5-5-5-3-3-3-3-3-3-3-3-3--
E:--------------------------------------------------------
     P.M.-----------|  ---------------|  ---------------|

riff 2 2nd guitar
e:--------------------------------------------------------
B:--------------------------------------------------------
G:-9-----------------7-----------------5------------------
D:-9-----------------7-----------------5------------------
A:-7-----------------5-----------------3------------------
E:--------------------------------------------------------



riff 1 1st guitar
e:----------------------
B:----------------------
G:-------4--------------
D:-5-4-2-4-4-5----------
A:-5-4-2-2-4-5----------
E:-3-2-0---2-3----------


riff 1 2nd guitar
e:-3-2-0-7-2-3--
B:--------------
G:--------------
D:--------------
A:--------------
E:--------------



riff 2 1st guitar
e:--------------------------------------------------------
B:--------------------------------------------------------
G:--------------------------------------------------------
D:-9-----------------7-----------------5------------------
A:-7-7-7-7-7-7-7-7-7-5-5-5-5-5-5-5-5-5-3-3-3-3-3-3-3-3-3--
E:--------------------------------------------------------
     P.M.-----------|  ---------------|  ---------------|


riff 2 2nd guitar
e:--------------------------------------------------------
B:--------------------------------------------------------
G:--------------------------------------------------------
D:-9-9-9-9-9-9-9-9-9-7-7-7-7-7-7-7-7-7-5-5-5-5-5-5-5-5-5--
A:-7-----------------5-----------------3------------------
E:--------------------------------------------------------
     P.M.-----------|  ---------------|  ---------------|



riff 1 1st guitar
e:----------------------
B:----------------------
G:-------4--------------
D:-5-4-2-4-4-5----------
A:-5-4-2-2-4-5----------
E:-3-2-0---2-3----------


riff 1 2nd guitar
e:-3-2-0-7-2-3--
B:--------------
G:--------------
D:--------------
A:--------------
E:--------------


riff 3 1st guitar 1(x)
e:--------------------------------------------------------
B:--------------------------------------------------------
G:--------------------------------------------------------
D:-9-----------------7-----------------5------------------
A:-7-7-7-7-7-7-7-7-7-5-5-5-5-5-5-5-5-5-3-3-3-3-3-3-3-3-3--
E:--------------------------------------------------------
     P.M.-----------|  ---------------|  ---------------|


riff 3 2nd guitar 3(x)
e:-0-2-3-5-3-2-0---
B:---------------3-
G:-----------------
D:-----------------
A:-----------------
E:-----------------


riff 1 1st guitar
e:----------------------
B:----------------------
G:-------4--------------
D:-5-4-2-4-4-5----------
A:-5-4-2-2-4-5----------
E:-3-2-0---2-3----------


riff 1 2nd guitar
e:-3-2-0-7-2-3--
B:--------------
G:--------------
D:--------------
A:--------------
E:--------------


riff 3 1st guitar 1(x)
e:--------------------------------------------------------
B:--------------------------------------------------------
G:--------------------------------------------------------
D:-9-----------------7-----------------5------------------
A:-7-7-7-7-7-7-7-7-7-5-5-5-5-5-5-5-5-5-3-3-3-3-3-3-3-3-3--
E:--------------------------------------------------------
     P.M.-----------|  ---------------|  ---------------|


riff 3 2nd guitar 3(x)
e:-0-2-3-5-3-2-0---
B:---------------3-
G:-----------------
D:-----------------
A:-----------------
E:-----------------



riff 1 1st guitar
e:-----------------------
B:-----------------------
G:-------4---------------
D:-5-4-2-4-4-5-2---------
A:-5-4-2-2-4-5-2---------
E:-3-2-0---2-3-0---------


riff 1 2nd guitar
e:-3-2-0-7-2-3-0-
B:---------------
G:---------------
D:---------------
A:---------------
E:---------------


"yeaaaaaaah..."

riff 4 1st guitar
e:----------
B:----------
G:-----4----
D:-5-4-4-4--
A:-5-4-2-4--
E:-3-2---2--


riff 4 2nd guitar
e:--------------
B:--------------
G:-------11-----
D:-12-11-9--11--
A:-10-9-----9---
E:--------------


riff 5 1st & 2nd guitar
e:--------------------------------------------------
B:--------------------------------------------------
G:--------------------------------------------------
D:-------2-------2-------2-------2-------2-------2--
A:-------2-------2-------2-------2-------2-------2--
E:-0-0-0-0-0-0-0-0-0-0-0-0-0-0-0-0-0-0-0-0-0-0-0-0--
   P.M.-|  -----|  -----|  -----|  -----|  -----|


riff 4 1st guitar
e:----------
B:----------
G:-----4----
D:-5-4-4-4--
A:-5-4-2-4--
E:-3-2---2--


riff 4 2nd guitar
e:--------------
B:--------------
G:-------11-----
D:-12-11-9--11--
A:-10-9-----9---
E:--------------


riff 5 1st & 2nd guitar
e:--------------------------------------------------
B:--------------------------------------------------
G:--------------------------------------------------
D:-------2-------2-------2-------2-------2-------2--
A:-------2-------2-------2-------2-------2-------2--
E:-0-0-0-0-0-0-0-0-0-0-0-0-0-0-0-0-0-0-0-0-0-0-0-0--
   P.M.-|  -----|  -----|  -----|  -----|  -----|



riff 4 1st guitar
e:----------
B:----------
G:-----4----
D:-5-4-4-4--
A:-5-4-2-4--
E:-3-2---2--


riff 4 2nd guitar
e:--------------
B:--------------
G:-------11-----
D:-12-11-9--11--
A:-10-9-----9---
E:--------------


riff 6 1st guitar
e:------------------------
B:------------------------
G:------------------------
D:-------2-------2--5-5-4-
A:-------2-------2--5-5-4-
E:-0-0-0-0-0-0-0-0--3-3-2-
   P.M.-|  -----|


riff 6 2nd guitar
e:----------------------------------
B:----------------------------------
G:----------------------------------
D:-------12-------12-------12-12-11-
A:-------10-------10-------10-10-9--
E:-0-0-0----0-0-0----0-0-0----------
   P.M.-|   -----|   -----|


riff 6 1st guitar
e:---------------------------
B:---------------------------
G:----------------------4----
D:-------2-------2--5-4-4-4--
A:-------2-------2--5-4-2-4--
E:-0-0-0-0-0-0-0-0--3-2---2--
   P.M.-|  -----|


riff 6 2nd guitar
e:--------------------------------------
B:--------------------------------------
G:-------------------------------11-----
D:-------12-------12-------12-11-9--11--
A:-------10-------10-------10-9-----9---
E:-0-0-0----0-0-0----0-0-0--------------
   P.M.-|   -----|   -----|


riff 6 1st guitar
e:------------------------
B:------------------------
G:------------------------
D:-------2-------2--5-5-4-
A:-------2-------2--5-5-4-
E:-0-0-0-0-0-0-0-0--3-3-2-
   P.M.-|  -----|


riff 6 2nd guitar
e:----------------------------------
B:----------------------------------
G:----------------------------------
D:-------12-------12-------12-12-11-
A:-------10-------10-------10-10-9--
E:-0-0-0----0-0-0----0-0-0----------
   P.M.-|   -----|   -----|


riff 6 1st guitar
e:------------------------------
B:------------------------------
G:----------------------4-------
D:-------2-------2--5-4-4-4--2--
A:-------2-------2--5-4-2-4--2--
E:-0-0-0-0-0-0-0-0--3-2---2--0--
   P.M.-|  -----|


riff 6 2nd guitar
e:-----------------------------------------
B:-----------------------------------------
G:-------------------------------11--------
D:-------12-------12-------12-11-9--11--2--
A:-------10-------10-------10-9-----9---2--
E:-0-0-0----0-0-0----0-0-0--------------0--
   P.M.-|   -----|   -----|

well thats it, and if u try it, ull see that its pretty much right. bmxfreak48@hotmail.com
Suggest correction
comments
print report bad tab
6 comments total. Showing first comments.
0 reply
demonchild88 0 wrote on November 16 2002, 12:00 am

this tab is alright for the most part. ver 1 is the best. sum 41 rox!!!!!!!!

0 reply
dav3011 216 wrote on September 7 2006, 04:17 pm

this is a good tab, minor faults though. gr8 sound.

0 reply
dav3011 216 wrote on September 7 2006, 04:17 pm

*song

guest
You may want to rate the tab now too:
select rating
Please do not post tabs as comments. Select "correction" instead!