Oops, an error
Loading. Please wait.

Grab The Devil By The Horns Tab

version 3
version 3
797 views 3 this week
6 commentsread comments
1 2 3 4 5
accurate
x 5
add to favorites
launch autoscroll
font size
0
reset
how to read this tab
guitar tuner
Autoscroll
slow
fast
+/-
esc
set tempo
stop
Help us to improve Ultimate-Guitar.com Take our survey!
×
Author
#----------------------------------PLEASE NOTE--------------------------------#
#This file is the author's own work and represents their interpretation of the#
#song. You may only use this file for private study, scholarship, or research.#
#-----------------------------------------------------------------------------#
#-- File created with Instab - http://www.pconline.com/~smcarey/instab.html --#
#-----------------------------------------------------------------------------#

Author/Artist: Sum 41
Title: Grab The Devil By The Horns (Cover)
Album: Half Hour Of Power
Transcribed by: Chris
Email: Self-Titled@cfl.rr.com

This is our own version. 

----------5-----------|---7--5--7-8--7-6-5-4-|---------------|----------------
--5--7-8----8-7--5----|----------------------|---------------|----------------
--------------------7-|----------------------|-------4-------|----------------
----------------------|----------------------|-5-4---4-4-5---|----------------
----------------------|----------------------|-5-4---2-4-5---|----------------
----------------------|----------------------|-3-2-0---2-3---|----------------
 Chris-Intro 7X         Mark-Intro 3X            Rythm Fill 1                 

-----------------------|----------5-----------|--------------|----------------
-----------------------|--5--7-8----8-7--5----|--------------|----------------
-9------7------5-------|--------------------7-|-----4--------|----------------
-9------7------5-------|----------------------|-5-4-4-4------|----------------
-777777755555553333333-|----------------------|-5-4-2-4------|----------------
-----------------------|----------------------|-3-2---2------|----------------
 Chris Verse 4X          Mark Verse 6X          Rythem Fill 2                 

------------------|------------------|---------------|------------------------
------------------|------------------|---------------|------------------------
-----------9------|------------9-----|-------9-9-7---|-7----------------------
-----------9------|------------9-----|-------9-9-7---|-7----------------------
-----------7------|------------7-----|-------7-7-5---|-5----------------------
-----0-0-0--------|------------------|-0-0-0---------|-0----------------------
 Chris Verse(2)12X   Mark Verse(2)12x   Rythem Fill 3      End--Let Ring      

Suggest correction
comments
print report bad tab
6 comments total. Showing first comments.
0 reply
Outlaw_Chris 75 wrote on April 9 2002, 12:00 am

Don't mind the Chris and Mark part under the tabs. I forgot to edit it out. Its for me and my friend to cover this song. I wrote all our parts.

0 reply
Ballrogg 10 wrote on April 9 2002, 12:00 am

Both of the tabs sound spot on!!!!!
Keep up the good work dudes!!

0 reply
Blink182rocks 190 wrote on April 13 2002, 12:00 am

this tab sucks look at version 1

guest
You may want to rate the tab now too:
select rating
Wanna post a correction for this tab? Suggest correction