Oops, an error
Loading. Please wait.

Grab The Devil By The Horns Tab

version 4
version 4
1,335 views 1 this week
1 commentread comment
1 2 3 4 5
x 4
add to favorites
launch autoscroll
font size
0
reset
how to read this tab
guitar tuner
Autoscroll
slow
fast
+/-
esc
set tempo
stop
Help us to improve Ultimate-Guitar.com Take our survey!
×
-------------------------------------------------------------------------------
         GRAB THE DEVIL BY THE HORNS AND FUCK HIM UP THE ASS - Sum 41
-------------------------------------------------------------------------------

By:Guitarted
Email: Guitarted@juno.com

Here's the 1st song off Half Hour of Power.

Intro Lick#1-Played throughout the song, but is played about 8x in the beginning.
e|----------------5------------------------------------------------------|
B|-----5---7--8-----8---7--5---------------------------------------------|
G|-------------------------------7---------------------------------------|
D|-----------------------------------------------------------------------|
A|-----------------------------------------------------------------------|
E|-----------------------------------------------------------------------|

Intro Lick#2-Another guitar comes in during the intro playing a higher version
of the riff above.
e|-------------------12--------------------------------------------------|
B|----12--14---15-------15--14--12---------------------------------------|
G|----------------------------------------14-----------------------------| Note- This lick comes 
D|-----------------------------------------------------------------------| in after intro lick#1
A|-----------------------------------------------------------------------| has been played 4x.
E|-----------------------------------------------------------------------|

Verse Riff#1-This riff kinda connects the rest of the riffs in the song.
Listen to song for timing...
e|-----------------------------------------------------------------------|
B|-----------------------------------------------------------------------|
G|---------------4-------------------------------------------------------|
D|----5--4--2----4----4---5----------------------------------------------|
A|----5--4--2----2----4---5----------------------------------------------|
E|----3--2--0---------2---3----------------------------------------------|

Verse Riff#3
e|-----------------------------------------------------------------------|
B|-----------------------------------------------------------------------|
G|-----------------------------------------------------------------------|
D|-----------------------------------------------------------------------|
A|-----7---7-7-7-7-7-7----5--5-5-5-5-5-5----3--3-3-3-3-3-3---------------|
E|-----------------------------------------------------------------------|
          [    P.M.     ]    [    P.M.     ]   [    P.M.     ]

Verse Riff #4 - This is probally the hardest riff in the song.The object is to get the P.M. part 
to sound like a galloping horse. You'll have to use up & down strokes to achieve this. Listen to 
song for timing.
e|-----------------------------------------------------------------------|
B|-----------------------------------------------------------------------|
G|-----------------------------------------------------------------------| Note: The palm muted 
D|-----------------------------------------------------------------------| open E's are 8th 
A|------------------7------------------7-------------------5-------------| notes and the 
E|-------0-0-0---------------0-0-0-------------0-0-0---------------------| following note is a    
                                                                           quarter  note. That 
                                                                           should help w/the 
                                                                           timing.
        [   P.M.  ]        [   P.M. ]         [   P.M.]


Well that's it.This is a kick ass instrumental that kinda sounds like an Iron
Maiden song.Later...

Suggest correction
comments
print report bad tab
1 comment total.
0 reply
blinkrox41 0 Apr 07, 2002 12:00 AM

sfgjkwebfkgbfcjksyfwkejbfuywefkjasbjasgdukjaebdlfjabdhcksdhvkj6bhd9sjkfg420asdn,dmnvc,dbmdvf,dbvsf,vb,jbjjkahfjadhja good tab

guest
You may want to rate the tab now too:
select rating
Wanna post a correction for this tab? Suggest correction