Oops, an error
Loading. Please wait.

Grab The Devil By The Horns Tab

version 6
version 6
2,827 views 3 this week
no commentswrite comment
1 2 3 4 5
please rate
add to favorites
launch autoscroll
font size
0
reset
how to read this tab
guitar tuner
Autoscroll
slow
fast
+/-
esc
set tempo
stop
Help us to improve Ultimate-Guitar.com Take our survey!
×
Author
Welcome to the one and only perfect tab of Grab The Devil. This song rocks and it is my 
tab so be sure to email me and let me know how I am doing. You can grab me at 
(Don't sell it)

Good luck man.

INTRO

Guitar 2

e--------5---------------------------------------------|
B--5-7-8---8-7-5---------------------------------------|
G----------------7-------------------------------------|
D------------------------------------------------------|
A------------------------------------------------------|
E------------------------------------------------------| 7X

Guitar 1

e-7-5-7-8-7-5-3-2--|
B------------------|
G------------------|
D------------------|
A------------------|
E------------------| 3X

e------------------|
B------------------|
G-------4----------|
D-5-4-4-4-4--------|
A-5-4-4-2-4--------|
E-3-2-2---2--------|
____________________________________________________________

Guitar 1
e----------------------------------------|
B----------------------------------------|
G-9-x-x-x-x-x--7-x-x-x-x-x--5-x-x-x-x-x--|
D-x-x-x-x-x-x--x-x-x-x-x-x--x-x-x-x-x-x--|
A-7-x-x-x-x-x--5-x-x-x-x-x--3-x-x-x-x-x--|
E----------------------------------------|

Both Guitars
e------------------|
B------------------|
G-------4----------|
D-5-4-4-4-4--------|
A-5-4-4-2-4--------|
E-3-2-2---2--------|

Guitar 1
e----------------------------------------|
B----------------------------------------|
G-9-x-x-x-x-x--7-x-x-x-x-x--5-x-x-x-x-x--|
D-x-x-x-x-x-x--x-x-x-x-x-x--x-x-x-x-x-x--|
A-7-x-x-x-x-x--5-x-x-x-x-x--3-x-x-x-x-x--|
E----------------------------------------|

Both Guitars
e------------------|
B------------------|
G-------4----------|
D-5-4-4-4-4--------|
A-5-4-4-2-4--------|
E-3-2-2---2--------|

Guitar 1
e----------------------------------------|
B----------------------------------------|
G-9-x-x-x-x-x--7-x-x-x-x-x--5-x-x-x-x-x--|
D-x-x-x-x-x-x--x-x-x-x-x-x--x-x-x-x-x-x--|
A-7-x-x-x-x-x--5-x-x-x-x-x--3-x-x-x-x-x--|
E----------------------------------------|

Guitar 2

e--------5---------------------------------------------|
B--5-7-8---8-7-5---------------------------------------|
G----------------7-------------------------------------|
D------------------------------------------------------|
A------------------------------------------------------|
E------------------------------------------------------|

Guitar 1
e------------------|
B------------------|
G-------4----------|
D-5-4-4-4-4--------|
A-5-4-4-2-4--------|
E-3-2-2---2--------|

Guitar 2
e-------4-------|
B-5-4-4---4-4-2-|
G---------------|
D---------------|
A---------------|
E---------------|


Guitar 1
e----------------------------------------|
B----------------------------------------|
G-9-x-x-x-x-x--7-x-x-x-x-x--5-x-x-x-x-x--|
D-x-x-x-x-x-x--x-x-x-x-x-x--x-x-x-x-x-x--|
A-7-x-x-x-x-x--5-x-x-x-x-x--3-x-x-x-x-x--|
E----------------------------------------|

Guitar 2

e--------5---------------------------------------------|
B--5-7-8---8-7-5---------------------------------------|
G----------------7-------------------------------------|
D------------------------------------------------------|
A------------------------------------------------------|
E------------------------------------------------------|

Both Guitars
e------------------|
B------------------|
G-------4----------|
D-5-4-4-4-4-2------|
A-5-4-4-2-4-2------|
E-3-2-2---2-0------| (Let Ring)

YEAAAHHHHH!!!!

Both Guitars Play The Ending.

e----------------|
B----------------|
G-----4----------|
D-5-4-4-4--------|
A-5-4-2-4--------|
E-3-2---2--------|

e------------------------------------------------------------|
B------------------------------------------------------------|
G--------9-------9--------9-------9-------9-------9----------|
D--------x-------x--------x-------x-------x-------x----------|
A--------7-------7--------7-------7-------7-------7----------|
E-0-0-0----0-0-0----0-0-0---0-0-0---0-0-0---0-0-0------------|

e----------------|
B----------------|
G-----4----------|
D-5-4-4-4--------|
A-5-4-2-4--------|
E-3-2---2--------|

e------------------------------------------------------------|
B------------------------------------------------------------|
G--------9-------9--------9-------9-------9-------9----------|
D--------x-------x--------x-------x-------x-------x----------|
A--------7-------7--------7-------7-------7-------7----------|
E-0-0-0----0-0-0----0-0-0---0-0-0---0-0-0---0-0-0------------|

e----------------|
B----------------|
G-----4----------|
D-5-4-4-4--------|
A-5-4-2-4--------|
E-3-2---2--------|

e------------------------------------------------------------|
B------------------------------------------------------------|
G--------12-------12--------12-12-11-------------------------|
D--------x--------x---------x--x--11-------------------------|
A--------10-------10--------10-10--9-------------------------|
E-0-0-0-----0-0-0----0-0-0-----------------------------------|

e---------------------------|
B---------------------------|
G--------12-------12--------|
D--------x--------x---------|
A--------10-------10--------|
E-0-0-0-----0-0-0-----------|

e----------------|
B----------------|
G-----4----------|
D-5-4-4-4--------|
A-5-4-2-4--------|
E-3-2---2--------|

e------------------------------------------------------------|
B------------------------------------------------------------|
G--------12-------12--------12-12-11-------------------------|
D--------x--------x---------x--x--11-------------------------|
A--------10-------10--------10-10--9-------------------------|
E-0-0-0-----0-0-0----0-0-0-----------------------------------|

e---------------------------|
B---------------------------|
G--------12-------12--------|
D--------x--------x---------|
A--------10-------10--------|
E-0-0-0-----0-0-0-----------|

e-----------------|
B-----------------|
G-----4-----------|
D-5-4-4-4---2-----|
A-5-4-2-4---2-----|
E-3-2---2---0-----|

(Let Ring)

Thanks for playing
Vote 5 if you loved it!
Suggest correction
Give kudos to tab author, rate the tab!
1 2 3 4 5
comments
print report bad tab
guest
You may want to rate the tab now too:
select rating
Wanna post a correction for this tab? Suggest correction