Oops, an error
Loading. Please wait.

Handle This Bass Tab

version 1
version 1
1,735 views 1 this week
4 commentsread comments
1 2 3 4 5
accurate
x 4
add to favorites
launch autoscroll
font size
0
reset
guitar tuner
Autoscroll
slow
fast
+/-
esc
set tempo
stop
Help us to improve Ultimate-Guitar.com Take our survey!
×
Artist: SUM 41 
Song: Handle This
Album: All Killer, No Filler
Tabbed by: Noia (pc.bianc@terra.com.br)

This is one of their best songs. As there were no tabs for this, I decided
to tab it myself.
Most of it should be right, but some parts (like the outro) I'm not too sure.
Fill 2 I couldn't hear what did he play, but I think the little lick I created
sounds fine.
It should be very to play. Timing is correct. I didn't put the order, but
You can figure it out.
Please e-mail me and tel what do you think of it.

Intro
G|-----------------------------|
D|-----------------------------|
A|-55--------------------------|
E|---------55------33------33--|

Verse
G|-----------------------------------------------------------------|
D|-----------------------------------------------------------------|
A|-5-5-5-5-5-5-5-5-5-5-5-5-5-5-5-5-5-5-5-5-5-5-5-5-5-5-5-5-5-5-5-5-|
E|-----------------------------------------------------------------|

G|---------------------------------|
D|---------------------------------|
A|---------------------------------|
E|-3-3-3-3-3-3-3-3-3-3-3-3-3-3-3-3-|

Chorus
G|---------------------------------------------------------------------------------|
D|---------------------------------------------------------------------------------|
A|-2-2-2-2---------5-5-5-5-------------------------2-2-2-2-------------------------|
E|---------3-3-3-3---------5-5-5-5-0-0-0-0-3-3-3-3---------3-3-3-3-0-0-0-0-5-5-5-5-|

Fill 1 (1st time from verse to chorus) Fill 2 (2nd time from verse to chorus)
G|---------------------------------|  G|----------------------------------6-6---7-7---6-6--|
D|---------------------------------|  D|--------------------------------44-4-455-5-544-4-4-|
A|---------------------------------|  A|---------------------------------------------------|
E|-5-5-5-5-5-5-5-5-5-5-5-5-5-5-5-5-|  E|5-5-5-5-5-5-5-5-5-5-5-5-5-5-5-5--------------------|

Solo                              X2                                                   X2
G|----------------------------------|---------------------------------|-----------------|
D|---------------------------------.|---------------------------------|----------------.|
A|-2-2-2-2-------------------------.|-2-2-2-2-------------------------|----------------.|
E|---------3-3-3-3-0-0-0-0-5-5-5-5--|---------3-3-3-3-0-0-0-0-0-0-0-0-|-5-5-5-5-5-5-5-5-|

Break
G|------------------------------------------------------------------|
D|------------------------------------------------------------------|
A|----------------------------------5-5-5-5-5-5-5-5-5-5-5-5---------|
E|-5-5-------------5-5--------------------------------------5-5-5-5-|

G|-------------------------------------------------------------------|
D|-------------------------------------------------------------------|
A|-------------------------------------------------------------------|
E|-5-5-5-5-5-5-5-5-3-3-3-3-3-3-3-3-0-0-0-0-3-3-3-3-3-5-5-5-5-7-7-7-7-|
PM                                 . . . . . . . . . . . . . 

Chorus Variation                                  X2
G|--------------------------------------------------|---------------------------------|
D|-------------------------------------------------.|---------------------------------|
A|-2-2-2-2---------5-5-5-5-------------------------.|-2-2-2-2---------5-5-5-5---------|
E|---------3-3-3-3---------5-5-5-5-0-0-0-0-3-3-3-3--|---------3-3-3-3---------5-5-5-5-|

Outro
G|-------------------------------------------------------------------------------------|
D|-------------------------------------------------------------------------------------|
A|-5-5-5-5-5-5-5-5-5-5-5-5-------------------------------------------------------------|
E|-------------------------5-5-5-5-5-5-5-5-5-5-5-5-5-5-5-5-3---3-3-----5-5-5-5-3---3-3-|

That's it. Hope it's right.
comments
print report bad tab
4 comments total. Showing first comments.
0 reply
Tijmen 160 wrote on December 23 2003, 12:00 am

Good Tab. Thanks for that, I agree that this is their best song.

0 reply
Tijmen 160 wrote on December 26 2003, 12:00 am

If you were to rewrite this tab, would you clarify the chorus by adding the words under it?

0 reply
Sumlover41 265 wrote on May 19 2006, 02:26 pm

It's in Drop D!

I want to post or [tab]
guest
You may want to rate the tab now too:
select rating
Please do not post tabs as comments. Select "correction" instead!