Oops, an error
Loading. Please wait.

Handle This Tab

version 1
26,247 views 9 this week
10 commentsread comments
1 2 3 4 5
accurate
x 11
add to favorites
launch autoscroll
font size
0
reset
how to read this tab
guitar tuner
Tab Pro tools
  • play this tab
  • loop segment
  • change instrument
  • show fretboard
  • metronome
×
Best way to learn
"Handle This"
Autoscroll
slow
fast
+/-
esc
set tempo
stop
Contributor
Artist:Sum 41
Title:Handle This
Album:All Killer No Filler

[Standard Tuning]
Intro(x2):For 1 Guitar.
e|-----------------------------------------------------------|
b|-----------------------------------------------------------|
g|--77-------------------------------------------------------|
d|--77--4/5/7--77--4/5\4\2--555555---4/5\4 0-----------------|
a|--55-----------77---------------555555---------------------|
e|----------------55---------------333333--------------------|

______________________________________________

Intro(x2) Two Guitars.(Sum 41's Way)
Guitar1
e|----------------------------------------|
b|----------------------------------------|
g|--77------------------------------------|
d|--77----77---55-x-x-x-55----------------|
a|--55----77---55-x-x-x-55----------------|
e|---------55---33-x-x-x-33---------------|

Intro(x2)Guitar 2
e|----------------------------------------|
b|----------------------------------------|
g|----------------------------------------|
d|-4/5/7---4/5\4\2000000-4/5\4------------|
a|----------------------------------------|
e|----------------------------------------|
After second time play: d|---0------------| (let ring)

Verse(palm mute)
e|-------------------------------------------------------------------------|
b|-------------------------------------------------------------------------|
g|------------------------------------44444444-----------------------------|
d|-2222222----44444444--------44444444-----55555555555-55555555555---------|
a|-2222222----44444444--------22222222-----55555555555-55555555555---------|
e|-2222222----44444444-------------------------33333333333-33333333333-----|
    * * * * * * * * * * * * * * * * * * * * * * * * * * * * * * * * * * (let off palm mute)
   < You say in doubt, we're fading out, forgetting who we used to be >       

Chorus
e|-----------------------------------------------------------------------------|
b|-----------------------------------------------------------------------------|
g|-4--4--4--4----------------7--7--7--7----------------------------------------|
d|-4--4--4--4--5--5--5--5--7--7--7--7--7--7--7--7--2--2--2--2--5--5--5--5------|
a|-2--2--2--2--5--5--5--5--5--5--5--5--7--7--7--7--2--2--2--2--5--5--5--5------|
e|---------------3--3--3--3----------------5--5--5--5--0--0--0--0--3--3--3--3--|
   

Guitar1
e|----------------------------|
b|----------------------------|
g|--77------------------------|
d|--77----77---55-x-x-x-55----|
a|--55----77---55-x-x-x-55----|
e|--------55---33-x-x-x-33----|

Intro(x2)Guitar 2
e|-------------------------------------|
b|-------------------------------------|
g|-------------------------------------|
d|-4/5/7---4/5\4\2000000-4/5\4---------|
a|-------------------------------------|
e|-------------------------------------|

Again: after second time play: 
d|---0-------------------| (let ring)

Verse 2(palm mute)
Guitar 1
e|-------------------------------------------------------------------------|
b|-------------------------------------------------------------------------|
g|------------------------------------44444444-----------------------------|
d|-2222222----44444444--------44444444-----55555555555-55555555555---------|
a|-2222222----44444444--------22222222-----55555555555-55555555555---------|
e|-2222222----44444444-------------------------33333333333-33333333333-----|
    * * * * * * * * * * * * * * * * * * * * * * * * * * * * * * * * * * (let off palm mute)
  

Guitar 2
e|----------------------------------------------------------------|
b|-------------2-3-----------2-3------------2-3-----------2-3-----|
g|---2-2-2-2------2-2-2-2-------2-2-2-2------2-2-2-2--------------|
d|----------------------------------------------------------------|
a|----------------------------------------------------------------|
e|----------------------------------------------------------------|

Just before the chorus play this:
e|--------------------------------------------------------------------------|
b|--------------------------------------------------------------------------|
g|--7777/9999/11-11-11-11\9999----------------------------------------------|
d|--------------------------------------------------------------------------|
a|--5555/7777/9--9--9--9\7777-----------------------------------------------|
e|--------------------------------------------------------------------------|

Chorus
e|-------------------------------------------------------------------------------
b|-------------------------------------------------------------------------------
g|-4--4--4--4----------------7--7--7--7------------------------------------------
d|-4--4--4--4--5--5--5--5--7--7--7--7--7--7--7--7--2--2--2--2--5--5--5--5--------
a|-2--2--2--2--5--5--5--5--5--5--5--5--7--7--7--7--2--2--2--2--5--5--5--5--------
e|---------------3--3--3--3----------------5--5--5--5--0--0--0--0--3--3--3--3----
   

Solo:
Guitar 1
e|---------12--10--14-14h15-14--------------------14-14h15-14-------------------
b|-----10----------------------15/12-15h17p15h17-------------15---12--10--------
g|-11----------------------------------------------------------------------12---
d|------------------------------------------------------------------------------
a|------------------------------------------------------------------------------
e|------------------------------------------------------------------------------

  --------------------------------------------------------12-14----10----14-12-
  -----------------------------------------------------10-------10----10-------
  -11h12-14-14-11h12-14-14-14h16p14--12p11\9-12p11-----------------------------
  -------------------------------------------------12--------------------------
  -----------------------------------------------------------------------------

  -12h10----12h10----12h10----12h10----12h10--------------|
  -------10-------10-------10-------10-------10--10--10---|
  --------------------------------------------------------|
  --------------------------------------------------------|
  --------------------------------------------------------|
  --------------------------------------------------------|

Solo:
Guitar 2(x3)
e|-----------------------------------------------------------------|
b|-----------------------------------------------------------------|
g|--7--7--7--7-----------------------------------------------------|
d|--7--7--7--7----7--7--7--7----2--2--2--2----5--5--5--5--5--------|
a|--5--5--5--5----7--7--7--7----2--2--2--2----5--5--5--5--5--------|
e|------------------5--5--5--5----0--0--0--0----3--3--3--3--3------|

Right after solo:
Guitar 1
e|------------------------------------------------------------------------------------------------|
b|------------------------------------------------------------------------------------------------|
g|-----------------------------------------------------------7-7---7/9/11-----7-7-------7/9/11----|
d|-55555555555555555555555555-------------------7-7----------------7-7-------7/9/11---------------|
a|-33333333333333333333333333-------------------5-5----------------5-5----------------------------|
e|-33333333333333333333333333---------------------------------------------------------------------|
   

Pre Chorus
Guitar 1
e|----------------------------------------------------------------|
b|----------------------------------------------------------------|
g|----------------------------------------------------------------|
d|-7--7--7--7--7--7--7--7--7--7--7--7--7--7-----------------------|
a|-7--7--7--7--7--7--7--7--7--7--7--7--7--7-----------------------|
e|-5--5--5--5--5--5--5--5--5--5--5--5--5--5-----------------------|
   

  -----------------------------------------------------------|
  -----------------------------------------------------------|
  -----------------------------------------------------------|
  -2--2--2--2--2--2--2--2--2--2-----5--5--5--5--5--5--5--5---|
  -2--2--2--2--2--2--2--2--2--2-----5--5--5--5--5--5--5--5---|
  -0--0--0--0--0--0--0--0--0--0-----3--3--3--3--3--3--3--3---|
        

  ----------------------------------------------------------------|
  ----------------------------------------------------------------|
  ----------------------------------------------------------------|
  5-5-5-5-5-5-5---------------------------------------------------|
  5-5-5-5-5-5-5---------------------------------------------------|
  3-3-3-3-3-3-3---------------------------------------------------|
  * * * * * * * * * (slowly let off palm mute)

Chorus(x2)
e|--------------------------------------------------------------------------------|
b|--------------------------------------------------------------------------------|
g|-4--4--4--4----------------7--7--7--7-------------------------------------------|
d|-4--4--4--4--5--5--5--5--7--7--7--7--7--7--7--7--2--2--2--2--5--5--5--5---------|
a|-2--2--2--2--5--5--5--5--5--5--5--5--7--7--7--7--2--2--2--2--5--5--5--5---------|
e|---------------3--3--3--3----------------5--5--5--5--0--0--0--0--3--3--3--3-----|
   

Last Part
e|-----------------------------------------------------------------------------|
b|-----------------------------------------------------------------------------|
g|--7--7--7--7--7--7--7--7--7--7-----------------------------------------------|
d|--7--7--7--7--7--7--7--7--7--7-------7--7--7--7--7--7--7--7--7--7--7--7------|
a|--5--5--5--5--5--5--5--5--5--5-------7--7--7--7--7--7--7--7--7--7--7--7------|
e|------------------------------------------5--5--5--5--5--5--5--5--5--5--5--5-|
     

  --------------------------------------------|
  --------------------------------------------|
  ----------------------7--7--7--7------------| 
  -5-x-5--5--5--5----7--7--7--7---7--7--7-----|
  -5-x-5--5--5--5----5--5--5--5---7--7--7-----|
  -3-x-3--3--3--3-------------------5--5--3---|
   

e|--------------------------------------------------------------------------------|
b|--------------------------------------------------------------------------------|
g|--7--7--7--7--7--7--7--7--7--7--------------------------------------------------|
d|--7--7--7--7--7--7--7--7--7--7-------7--7--7--7--7--7--7--7--7--7--7--7---------|
a|--5--5--5--5--5--5--5--5--5--5-------7--7--7--7--7--7--7--7--7--7--7--7---------|
e|------------------------------------------5--5--5--5--5--5--5--5--5--5--5--5----|
     

  -------------------------------------------------|
  -------------------------------------------------|
  ----------------------7--7--7--7-----------------|
  -5-x-5--5--5--5----7--7--7--7---7--7--7----------|
  -5-x-5--5--5--5----5--5--5--5---7--7--7----------|
  -3-x-3--3--3--3-------------------5--5--3--------|
   

e|------------------------------------------------------------------------------|
b|------------------------------------------------------------------------------|
g|--7--7--7--7--7--7--7--7--7--7------------------------------------------------|
d|--7--7--7--7--7--7--7--7--7--7-------7--7--7--7--7--7--7--7--7--7--7--7-------|
a|--5--5--5--5--5--5--5--5--5--5-------7--7--7--7--7--7--7--7--7--7--7--7-------|
e|------------------------------------------5--5--5--5--5--5--5--5--5--5--5--5--|
     

  -----------------------------------------------|
  -----------------------------------------------|
  ----------------------7--7--7--7---------------| 
  -5-x-5--5--5--5----7--7--7--7---7--7--7--------|
  -5-x-5--5--5--5----5--5--5--5---7--7--7--------|
  -3-x-3--3--3--3-------------------5--5--3------|
   

e|------------------------------------------------------------------------------|
b|------------------------------------------------------------------------------|
g|--7--7--7--7--7--7--7--7--7--7------------------------------------------------|
d|--7--7--7--7--7--7--7--7--7--7-------7--7--7--7--7--7--7--7--7--7--7--7-------|
a|--5--5--5--5--5--5--5--5--5--5-------7--7--7--7--7--7--7--7--7--7--7--7-------|
e|------------------------------------------5--5--5--5--5--5--5--5--5--5--5--5--|
     

  -------------------------------------------------|
  -------------------------------------------------|
  ----------------------7--7--7--7-----------------| 
  -5-x-5--5--5--5----7--7--7--7---7--7--7----------|
  -5-x-5--5--5--5----5--5--5--5---7--7--7----------|
  -3-x-3--3--3--3-------------------5--5--3--------|
   

That all, hope you like it. It took me hours in my computer hearing that song and tabbing it.
comments
print report bad tab
10 comments total. Showing first comments.
+1 reply
Dav Diablos wrote on April 17 2002, 12:00 am

that is a brilliant tab. keep 'um coming.

+1 reply
jjelectrix wrote on April 23 2002, 12:00 am

solo is perfect at least, rest could use some work, but still pretty good.

0 reply
Musicmann2k wrote on April 26 2002, 12:00 am

oh.my.god.this tab kix too much ass man,great job!

I want to post or [tab]
guest
You may want to rate the tab now too:
select rating
Please do not post tabs as comments. Select "correction" instead!