Oops, an error
Loading. Please wait.

Handle This Bass Tab

version 2
version 2
3,480 views 15 this week
1 commentread comment
1 2 3 4 5
accurate
x 6
add to favorites
launch autoscroll
font size
0
reset
guitar tuner
Tab Pro tools
  • play this tab
  • loop segment
  • change instrument
  • show fretboard
  • metronome
×
Best way to learn
"Handle This"
Autoscroll
slow
fast
+/-
esc
set tempo
stop
Contributor
Difficulty
intermediate
Handle This Bass Tab

Intro
G----------------------------------|
B----------------------------------|        INTRO PLAY (2X)
A----5-5---------------------------|
E---------5-5------3-3---3-3-------|

Verse1
G----------------------------------------|
B----------------------------------------|
A------5(x16)---------10(x4)---9(x4)-----|
E----------------------------------------|

G-----------------------------------------------|
B-----------------------------------------------|
A------5(x8)------------------------------------|
E----------------5(x8)----7(x8)----3(x8)--------|

Chorus
G--------------------------------------------------------------|
B--------------------------------------------------------------|
A---------------------------5(x4)------------------------------|
E-----7(x4)-----3(x4)---------------5(x4)----0(x4)----3(x4)----|

G-------------------------------------------------|
B-------------------------------------------------|
A------5(x4)--------------------------------------|
E-----------------5(x4)----0(x4)----3(x4)---------|


(PLAY THE INTRO ONCE AGAIN..)

Verse2
G----------------------------------------|
B----------------------------------------|
A------5(x16)---------10(x4)---9(x4)-----|
E----------------------------------------|

G-----------------------------------------------|
B-----------------------------------------------|
A------5(x8)------------------------------------|
E----------------5(x8)----7(x8)----3(x8)--------|

G----------------------------------|
B----------------------------------|
A----5-5----7-7----9-9----7-7------|
E----------------------------------|


(PLAY CHORUS)

Solo
G---------------------------------------------|
B---------------------------------------------|       Play(x2)
A------5(x4)----------------------------------|
E----------------5(x4)----0(x4)----3(x4)—-----|

G---------------------------------------------|
B---------------------------------------------|
A----5(x4)------------------------------------|
E---------------5(x4)----0(x8)----3(x16)------|

After Solo
G----------------------|
B----------------------|
A----5-5----5-5--------|
E----------------------|

G---------------------------------|
B---------------------------------|
A---------------------------------|
E----5(x8)----0(x8)----3(x8)—-----|

Chorus
G-------------------------------------------------------------|
B-------------------------------------------------------------|     Play(x2)
A-----------------------5(x4)---------------------------------|
E----7(x4)----3(x4)------------5(x4)----0(x4)----3(x4)—-------|

G--------------------------------------------|
B--------------------------------------------|
A----5(x4)-----------------------------------|
E--------------5(x4)----0(x4)----3(x4)—------|

Outro
G------------------------------------------------|
B------------------------------------------------|            Play (x2)
A----5(x8)---------------------------5(x3)-------|
E------------5(x8)----3-3-xx-3-3-3---------5-----|

*That's all about it.. My instinct tells me that my tab is almost correct... well, enjoy it..
comments
print report bad tab
1 comment total.
-1 reply
faKtion68 wrote on January 2 2008, 07:04 pm

wow...did u just completely go deaf? do u not hear the walking at the end of the verse or anything??

I want to post or [tab]
guest
You may want to rate the tab now too:
select rating
Please do not post tabs as comments. Select "correction" instead!