Oops, an error
Loading. Please wait.

Handle This Tab

version 2
1,878 views 1 this week
no commentswrite comment
1 2 3 4 5
accurate
x 4
add to favorites
launch autoscroll
font size
0
reset
how to read this tab
guitar tuner
Autoscroll
slow
fast
+/-
esc
set tempo
stop
Help us to improve Ultimate-Guitar.com Take our survey!
×
Contributor
---------------------------------------------------------------------
                             Handle This - Sum 41
---------------------------------------------------------------------

By:J.V

Okay, this is straight from the tab book.Its in Dropped D tuning
(DADGBe)

(|)= same time
harm.= harmonic
x=scratch
P.M.=palm mute
p=pull-off
h=hammer-on

Intro(2x) 
e|----------------------------------------------------------------|
B|----------------------------------------------------------------|
G|-----11-12-14-(14)\--x-x-11/12-11-9-(9)\7--7-7--7--7-7-11/12-11-|
D|------x--x--x--(x)---x-x--x--x--x-x-(x)----x-x--x--x-x--x--x--x-|
A|------9-10-12-(12)\--x-x--9/10--9-7-(7)\5--5-5--5--5-5--9/10--9-|
D|----------------------------------------------------------------|
|
|
e|----------------------------------------------------------------|
B|----------------------------------------------------------------|
G|----------------------------------------------------------------|
D|----------------------------------------------------------------|
A|-0--0-------------7--7--------------5---5-x-x-x-x--5--5-x-x-x-x-|
D|-0--0-------------7--7--------------5---5-x-x-x-x--5--5-x-x-x-x-|

Verse
You said it once before,____  you dont do__ those things you used_ to an-y-more__. 

e|----------------------------------------------------------------|
B|----------------------------------------------------------------|
G|-7--------------------------------------------------------------|
D|-x--------------------------------------------------------------|
A|-5--------------------------------------------------------------|
D|----------------------------------------------------------------|
|
|
e|----------------------------------------------------------------|
B|----------------------------------------------------------------|
G|----------------------------------------------------------------|
D|----------------------------------------------------------------|
A|-0--------------------------------------------------------------|
D|-0--------------------------------------------------------------|


 ____         You say in doubt,_____          were fad-in'__ out,__ 
  P.M.- - - - - - - - - - - - - - - - - - - - - - - - - - - - - - -
e|----------------------------------------------------------------|
B|----------------------------------------------------------------|
G|----------------------------------------------------------------|
D|-7-7-7-7-7-7-7-7-7-7-7-7-7-7-7---2-2-2-2-2-2-2-2-2-2-2-2-2-2-2-2|
A|-5-5-5-5-5-5-5-5-5-5-5-5-5-5-5-0-0-0-0-0-0-0-0-0-0-0-0-0-0-0-0-0|
D|----------------------------------------------------------------|

___ for-get-ting who  we used to be.___                      'Cause
P.M.- - - - - - - - - - - - - - - - - - - - - - - - - - - - - - - -
e|----------------------------------------------------------------|
B|----------------------------------------------------------------|
G|----------------------------------------------------------------|
D|-4-4-4-4-4-4-4-4-4-4-4-4-4-4-4---------------------------------0|
A|-2-2-2-2-2-2-2-2-2-2-2-2-2-2-2-0-5-5-5-5-5-5-5-5-5-5-5-5-5-5-5-0|
D|---------------------------------5-5-5-5-5-5-5-5-5-5-5-5-5-5-5--|

Chorus
I will bring you down I dont wanna miss I dont think you can handle this.
You've 

e|----------------------------------------------------------------|
B|----------------------------------------------------------------|
G|------------------7-7-7-----------------------------------------|
D|4-4-4-4-----------7-7-7-7---2-2--2-2-2--------------------------|
A|2-2-2-2p0-5-5-5-5-5-5-5-5p0-0-0--0-0-0-2--2--2--2-2-5--5--5--5-5|
D|----------5-5-5-5----------------------2--2--2--2-2-5--5--5--5-5|

lost      what    you can't find,____   nev-er  what you had__ in__

e|----------------------------------------------------------------|
B|----------------------------------------------------------------|
G|----------------------------------------------------------------|
D|-7---7---7---7---2---2---2---2-2--------------------------------|
A|-5---5---5---5p0-0---0---0---0-0-2---2---2---2-2-5-5-5-5-5-5-5-5|
D|-0---0---0---0-------------------2---2---2---2-2-5-5-5-5-5-5-5-5|

mind.
e|----------------------------------------------------------------|
B|----------------------------------------------------------------|
G|-(Play intro for gtrs here--------------------------------------|
D|----------------------------------------------------------------
A|----------------------------------------------------------------|
D|----------------------------------------------------------------|

Verse 2

You take it with a smile,____ its so easy when youre always in denial___ Just in time.___

e|-----------------------------------------------------------------|
B|-----------------------------------------------------------------|
G|-----------------------------------------------------------------|
D|----------No guitar for this yet---------------------------------|
A|-----------------------------------------------------------------|
D|-----------------------------------------------------------------|


_____       but     out   of______ line,_______
P.M.- - - - -   -      -  -  -  -   -   
e|-----------------------------------------------------------------|
B|-----------------------------------------------------------------|
G|------------6---7---------------6---7----------------------------|
D|-7--7--7--7---7------7--7--7--7---7------------------------------|
A|-----------------------------------------------------------------|
D|-----------------------------------------------------------------|
|
|P.M.- - - - - - - - - - - - - - - - - - - - - - - 
e|-----------------------------------------------------------------|
B|-----------------------------------------------------------------|
G|-----------------------------------------------------------------|
D|-2--2--2--2--2--2--2--2--2--2--2--2--2--2--2--2------------------|
A|-0--0--0--0--0--0--0--0--0--0--0--0--0--0--0--0------------------|
D|-----------------------------------------------------------------|


____        I     cant ______ make 
P.M.- - - - -   -      -  -  -  -   -
e|-----------------------------------------------------------------|
B|-----------------------------------------------------------------|
G|------------6---7---------------6---7\---------------------------|
D|-7--7--7--7---7------7--7--7--7---7------------------------------|
A|-----------------------------------------------------------------|
D|-----------------------------------------------------------------|
|
|P.M. - - -- - - - - - - - - - - - - - - - - - - - -
e|-----------------------------------------------------------------|
B|-----------------------------------------------------------------|
G|-----------------------------------------------------------------|
D|-4--4--4--4--4--4--4--4--4--4--4--4--4--4--4--4------------------|
A|-2--2--2--2--2--2--2--2--2--2--2--2--2--2--2--2------------------|
D|-----------------------------------------------------------------|

all the same mistakes you want me to___
e|-------------------------------------------------------------------|
B|-------------------------------------------------------------------|
G|-------------------------------11111111-12-12-12-1211111111--------|
D|--------------------------------x-x-x-x--x--x--x--x-x-x-x-x--------|
A|5-5-5-5-5-5-5-5-5-5-5-5-5-5-5-5-9-9-9-9-10-10-10-10-9-9-9-9--------|
D|5-5-5-5-5-5-5-5-5-5-5-5-5-5-5-5-----------------------------2-2-2-0|
|
|
e|-------------------------------------------------------------------|
B|-------------------------------------------------------------------|
G|--------------------------------7-7-7-7-9-9-9-9-11-11-11-11-9-9-9--|
D|--------------------------------x-x-x-x-x-x-x-x--x--x--x--x-x-x-x--|
A|5-5-5-5-5-5-5-5-5-5-5-5-5-5-5-5-5-5-5-5-7-7-7-7--9--9--9--9-7-7-7\-|
D|5-5-5-5-5-5-5-5-5-5-5-5-5-5-5-5------------------------------------|

play chorus

solo
e|-------------14---14b-(14)-------------10-12-10h12/14--14b-(14)----|
B|------17--15---------------15-(15)\/12--------------------------15-|
G|---14----------14--------------------------------------------------|
D|/16----------------------------------------------------------------|
A|-------------------------------------------------------------------|
D|-------------------------------------------------------------------|
|
|
e|-------------------------------------------------------------------|
B|-------------------------------------------------------------------|
G|-------------------------------------------------------------------|
D|-7--7--7--7-7------------------------------------------------------|
A|-5--5--5--5-5--7---7---7--7-7--2--2--2---2--2--5--5--5---5---5--5--|
D|---------------7---7---7--7-7--2--2--2---2--2--5--5--5---5---5--5--|

e|-------------------------------------------------------------------|
B|(15)\/12-10--------------------------------------------------------|
G|-----------12-11p12/14-14-11p12-14-14-14p16-14-12-11---12-11-------|
D|-----------------------------------------------------14-----12-12--|
A|-------------------------------------------------------------------|
D|-------------------------------------------------------------------|
|
|
e|-------------------------------------------------------------------|
B|-------------------------------------------------------------------|
G|-------------------------------------------------------------------|
D|-7--7--7--7-7------------------------------------------------------|
A|-5--5--5--5-5--7---7---7--7-7--2--2--2---2--2--5--5--5---5---5--5--|
D|---------------7---7---7--7-7--2--2--2---2--2--5--5--5---5---5--5--|

e|-10--12--14--12--10--14/15--14--12---------------------------------|
B|-10--10--10--10--10--10-----10--10---------------------------------|
G|-------------------------------------------------------------------|
D|-------------------------------------------------------------------|
A|-------------------------------------------------------------------|
D|-------------------------------------------------------------------|
|
|
e|-------------------------------------------------------------------|
B|-------------------------------------------------------------------|
G|-------------------------------------------------------------------|
D|-7--7--7--7-7------------------------------------------------------|
A|-5--5--5--5-5--7---7---7--7-7--------------------------------------|
D|---------------7---7---7--7-7--------------------------------------|

e|-12p10----12p10----12p10----12p10----12p10-------------------------|
B|-10----10-10----10-10----10-10----10-10----10----------------------|
G|-------------------------------------------------------------------|
D|-------------------------------------------------------------------|
A|-------------------------------------------------------------------|
D|-------------------------------------------------------------------|
|
|
e|-------------------------------------------------------------------|
B|-------------------------------------------------------------------|
G|-------------------------------------------------------------------|
D|-------------------------------------------------------------------|
A|-2----2----2---2---2----2----2----2---2---2------------------------
D--2----2----2---2---2----2----2----2---2---2------------------------|

e|-10----------------------------------------------------------------|
B|-10----------------------------------------------------------------|
G|-------------------------------------------------------------------|
D|-------------------------------------------------------------------|
A|-------------------------------------------------------------------|
D|-------------------------------------------------------------------|
|
|
e|-------------------------------------------------------------------|
B|-------------------------------------------------------------------|
G|-------------------------------------------------------------------|
D|-------------------------------------------------------------------|
A|-5--5--5--5--5--5--5--5-5--5--5--5--5--5--5--5-5-------------------|
D|-5--5--5--5--5--5--5--5-5--5--5--5--5--5--5--5-5-------------------|

e|--------------------------------------------------------|
B|--------------------------------------------------------|
G|---------------------------------11p12/14---------------|
D|--------------------------------------------------------|
A|--------------------------------------------------------|
D|--------------------------------------------------------|
|
|
e|--------------------------------------------------------|
B|--------------------------------------------------------|
G|---------7h9/11---(11)\------------7h9/11---(11)\-------|
D|--------------------------------------------------------|
A|--------------------------------------------------------|
D|--------------------------------------------------------|
|
|
e|--------------------------------------------------------|
B|--------------------------------------------------------|
G|--------------------------------------------------------|
D|-7--7---------------------------------------------------|
A|-5--5------------------------0--0-----------x-x-x-x-----|
D|-----------------------------0--0-----------x-x-x-x-----|

and its true what youre going thru try so hard not to listen to
e|---------------------------------------------------------|
B|---------------------------------------------------------|
G|---------------------------------------------------------|
D|---------------------------------------------------------|
A|-7--7---7--7----7----7--7--7--2--2--2--2---2--2--2--2----|
D|-7--7---7--7----7----7--7--7--2--2--2--2---2--2--2--2p0--|

                               P.M.--------------- 
everything I never say_____                             'Cause     
e|---------------------------|---------------------------------|
B|---------------------------|---------------------------------|
G|---------------------------|---------------------------------|
D|---------------------------|---------------------------------|
A|-5--5--5--5--5--5--5--5--5-|--5-5-5-5-5-5-5-5-5-5-5-5-5-5-5--|
D|-5--5--5--5--5--5--5--5--5-|--5-5-5-5-5-5-5-5-5-5-5-5-5-5-5--|

Chorus (1st part 2 times)

Outro
mind.Im getting over getting used to and after all that I put you through
e|--------------------------------------------------------------|
B|--------------------------------------------------------------|
G|7--7-7-7--7--7-7-7-7-7--7-------------------------------------|
D|7--7-7-7--7--7-7-7-7-7--7-------------------------------------|
A|5--5-5-5--5--5-5-5-5-5--5p0-7---7-7-7--7---7-7-7-7-7---7------|
D|----------------------------7---7-7-7--7---7-7-7-7-7---7--0---|

now   I see      I'm not   the only one.___  
e|--------------------------------------------------------------|
B|-----------8--------------------------------------------------|
G|-----------7-------------7-7-7-7------------------------------|
D|-----5--5--5-------------7-7-7-7-0----------------------------|
A|5--5-------5---5-5-5-5---5-5-5-5-0-7---7--7-7-7-7-------------|
D|5--5-------5---5-5-5-5-------------7---7--7-7-7-7-------------|
       harm.

Never thought itd ever come to this in fact was never what you wanted from me 
e|----------------------------------------|
B|----------------------------------------|
G|----------same thing as above here------|
D|----------------------------------------|
A|----------------------------------------|
D|----------------------------------------|

(gtrs. comes in for the 2nd time)(back up vocals come in too)
lost    what   you  cant      find._____   
e|-----------------------------------------------------------------|
B|-----------------------------------------------------------------|
G|-11-9-11---9-11-9-11-12-11-9----11-11-9-11--9-11-9-11-12-11-9----|
D|-----------------------------12-------------------------------12-|
A|-----------------------------------------------------------------|
D|-----------------------------------------------------------------|
|
|
e|-----------------------------------------------------------------|
B|-----------------------------------------------------------------|
G|-9--7--9---7--9-7-9--10-9--7-5--9--9--7-9--7--9--7-9-10--9--7----|
D|--------------------------------------------------------------5--|
A|-----------------------------------------------------------------|
D|-----------------------------------------------------------------|

 now  I    see    I'm not the on - ly_____       one.____   
e|-------------------------------------------------------------------|
B|-------------------------------------------------------------------|
G|-9---11---------12--12--12\11--11--11--(11)\9--9----9---9--9--9--9-|
D|---------12--------------------------------------------------------|
A|-------------------------------------------------------------------|
D|-------------------------------------------------------------------|
|
|
e|-------------------------------------------------------------------|
B|-------------------------------------------------------------------|
G|-------------------------------------------------------------------|
D|-------------------------------------------------------------------|
A|-7---9---5------10--10--10\9---9---9---(9)\7---7----7---7--7--7--7-|
D|-------------------------------------------------------------------|

  ne-verthought it'd ev-er     come_ to   this, in fact, was never what you    
e|--------------------------------------------------------------------------|
B|--------------------------------------------------------------------------|
G|-9-11-9-11----9--11-9--11-12-11-9------11-11-9-11---9-11-9-11-12-11-9-----|
D|-----------------------------------12----------------------------------12-|
A|--------------------------------------------------------------------------|
D|--------------------------------------------------------------------------|
|
|
e|--------------------------------------------------------------------------|
B|--------------------------------------------------------------------------|
G|--------------------------------------------------------------------------|
D|--------------------------------------------------------------------------|
A|-7--9-7--9----7--9--7---9-10--9-7--5---9--9-7--9---7--9-7--9-10--9-7---5--|
D|--------------------------------------------------------------------------|

wanted from me    or how      you meant  it  to be.______________
e|--------------------------------------------------------------|
B|--------------------------------------------------------------|
G|-9---11---------12--12--12\11--11--11--(11)\9--9--------------|
D|---------12---------------------------------------------------|
A|--------------------------------------------------------------|
D|--------------------------------------------------------------|
|
|
e|--------------------------------------------------------------|
B|--------------------------------------------------------------|
G|--------------------------------------------------------------|
D|--------------------------------------------------------------|
A|-7---9---5------10--10--10\9---9---9---(9)\7---7--------------|
D|--------------------------------------------------------------|
|
|
e|-----------------------------------------------------------|
B|-----------8-----------------------------------------------|
G|-----------7-------------7---7-----------------------------|
D|-----5--5--5-------------7---7-----------------------------|
A|5--5-------5---5-5-5-5---5---5--5p0--7---------------------|
D|5--5-------5---5-5-5-5---------------7---------------------|
       harm.

There it is..Hope you like it..Sorry if its a little too long or a bit confusing
with too many guitars.

xtremepoopmaster@aol.com
Suggest correction new What's this?
You can suggest a correction to this tab. Community and Mods will review your correction and vote to approve or reject it.
comments
print report bad tab
guest
You may want to rate the tab now too:
select rating
Please do not post tabs as comments. Select "correction" instead!