Oops, an error
Loading. Please wait.

Handle This Bass Tab

version 3
version 3

Whole song

  • Hi all, i wrote this tab for a friend of mine. Thi... Show more
13 views 1 this week
no commentswrite comment
1 2 3 4 5
3 more votes to show rating
add to favorites
launch autoscroll
font size
0
reset
guitar tuner
Autoscroll
slow
fast
+/-
esc
set tempo
stop
Help us to improve Ultimate-Guitar.com Take our survey!
×
Author
Difficulty
intermediate
About this tab version
Hi all, i wrote this tab for a friend of mine. This tab don't need to tune the bassin drop d. I know that the original song is in drop d but this is inconvenient during live or if you don't have time to retune. It's not 100% accurate, so if you have any suggestion just write in the comments. Was this info helpful? Yes No

Intro - Bridge
G|------------|-------------|------------|------------------|
D|------------|-------------|------------|------------------|
A|----5---5---|-------------|------------|------------------|
E|------------|-----7---7---|----3---3---|----3---3--2-3-2--| x2


Verse
G|---------------------------------|---------------------------------|---------------------------------|
D|---------------------------------|---------------------------------|-5-5-5-5-5-5-5-5-4-4-4-4-4-4-4-4-|
A|-5-5-5-5-5-5-5-5-5-5-5-5-5-5-5-5-|---------------------------------|---------------------------------|
E|---------------------------------|-5-5-5-5-5-5-5-5-5-5-5-5-5-5-5-5-|---------------------------------|

G|---------------------------------|---------------------------------|--------------------------------|
D|---------------------------------|---------------------------------|--------------------------------|
A|-5-5-5-5-5-5-5-5-5-5-5-5-5-5-5-5-|-7-7-7-7-7-7-7-7-7-7-7-7-7-7-7-7-|-------------------5--7--5--7---|
E|---------------------------------|---------------------------------|-7-7-7-7-7-7-7-7-7--------------|

G|---------------------------------|
D|---------------------------------|
A|---------------------------------|
E|-3-3-3-3-3-3-3-3-3-3-3-3-3-3-3-3-|

Chorus
G|-----------------|-----------------|-----------------|-----------------|
D|-----------------|-----------------|-----------------|-----------------|
A|-----------------|-5-5-5-5---------|-----------------|-5-5-5-5---------|
E|-7-7-7-7-3-3-3-3-|---------5-5-5-5-|-0-0-0-0-3-3-3-3-|---------5-5-5-5-|

G|-----------------|
D|-----------------|
A|-----------------|
E|-0-0-0-0-3-3-3-3-|

Bridge
G|------------|-------------|------------|------------------|
D|------------|-------------|------------|------------------|
A|----5---5---|-------------|------------|------------------|
E|------------|-----7---7---|----3---3---|----3---3--2-3-2--| x2

Verse#2
G|---------------------------------|---------------------------------|---------------------------------|
D|---------------------------------|---------------------------------|-5-5-5-5-5-5-5-5-4-4-4-4-4-4-4-4-|
A|-5-5-5-5-5-5-5-5-5-5-5-5-5-5-5-5-|---------------------------------|---------------------------------|
E|---------------------------------|-5-5-5-5-5-5-5-5-5-5-5-5-5-5-5-5-|---------------------------------|

G|---------------------------------|---------------------------------|--------------------------------|
D|---------------------------------|---------------------------------|--------------------------------|
A|-5-5-5-5-5-5-5-5-5-5-5-5-5-5-5-5-|-7-7-7-7-7-7-7-7-7-7-7-7-7-7-7-7-|-------------------5--7--7-7-7--|
E|---------------------------------|---------------------------------|-7-7-7-7-7-7-7-7-7--------------|

G|---------------------------------|---------------------------------|
D|---------------------------------|-5-5-5-5-5-5-5-5-4-4-4-4-2-2-2-2-|
A|---------------------------------|---------------------------------|
E|-3-3-3-3-3-3-3-3-3-3-3-3-3-3-3-3-|---------------------------------|

Chorus
G|-----------------|-----------------|-----------------|-----------------|
D|-----------------|-----------------|-----------------|-----------------|
A|-----------------|-5-5-5-5---------|-----------------|-5-5-5-5---------|
E|-7-7-7-7-3-3-3-3-|---------5-5-5-5-|-0-0-0-0-3-3-3-3-|---------5-5-5-5-|

G|-----------------|
D|-----------------|
A|-----------------|
E|-0-0-0-0-3-3-3-3-|

Solo
G|-----------------|-----------------|
D|-----------------|-----------------|
A|-5-5-5-5---------|-----------------|
E|---------5-5-5-5-|-0-0-0-0-3-3-3-3-| x2

Solo#2
G|-----------------|-----------------|-----------------|-----------------|
D|-----------------|-----------------|-----------------|-----------------|
A|-5-5-5-5---------|-----------------|-----------------|-----------------|
E|---------5-5-5-5-|-0-0-0-0-0-0-0-0-|-3-3-3-3-3-3-3-3-|-3-3-3-3-3-3-3-3-|

Interlude
G|-----------|-----------|---------------|-----------------------------------|
D|-----------|-----------|---------------|-----------------------------------|
A|----5--5---|----5--5---|---------------|-----------------------------------|
E|-----------|-----------|-SLIDE UP/DOWN-|-5-5-5-5-5-5-5-5-|-0-0-0-0-0-0-0-0-|

G|-----------------|-----------------|
D|-----------------|-----------------|
A|-----------------|-----------------|
E|-3-3-3-3-3-3-3-3-|-3-3-3-3-3-3-3-3-|

Chorus#2
G|-----------------|-----------------|-----------------|-----------------|
D|-----------------|-----------------|-----------------|-----------------|
A|-----------------|-5-5-5-5---------|-----------------|-----------------|
E|-7-7-7-7-3-3-3-3-|---------5-5-5-5-|-0-0-0-0-3-3-3-3-|-7-7-7-7-3-3-3-3-|

G|-----------------|-----------------|-----------------|-----------------|
D|-----------------|-----------------|-----------------|-----------------|
A|-5-5-5-5---------|-----------------|-5-5-5-5---------|-----------------|
E|---------5-5-5-5-|-0-0-0-0-3-3-3-3-|---------5-5-5-5-|-0-0-0-0-3-3-3-3-|

Outro
G|---------------------------------|---------------------------------|
D|---------------------------------|---------------------------------|
A|-5-5-5-5-5-5-5-5-5-5-5-5-5-5-5-5-|---------------------------------|
E|---------------------------------|-5-5-5-5-5-5-5-5-5-5-5-5-5-5-5-5-|

G|-------------------------------|---------------------------------|
D|-------------------------------|---------------------------------|
A|-------------------------------|-5-5-5-5-5-5---------------------|
E|-3---3-3-X-X---3-----3-2-3-2-3-|-------------5-5-5-5-5-5-5-5-5-5-| x4

Ends with:
G|-----|
A|-----|
D|-----|
E|-5---|

•       Intro      x2
•       Verse      x1
•       Chorus     x1
•       Bridge     x2 
•       Verse#2    x1
•       Chorus     x1
•       Solo       x2
•       Solo#2     x1
•       Interlude  x1
•       Chorus#2   x1
•       Outro      x4
Suggest correction
Give kudos to tab author, rate the tab!
1 2 3 4 5
comments
print report bad tab
guest
You may want to rate the tab now too:
select rating
Wanna post a correction for this tab? Suggest correction