Oops, an error
Loading. Please wait.

Handle This Tab

version 3
822 views 1 this week
8 commentsread comments
1 2 3 4 5
worth learning
x 6
add to favorites
launch autoscroll
font size
0
reset
how to read this tab
guitar tuner
Autoscroll
slow
fast
+/-
esc
set tempo
stop
Help us to improve Ultimate-Guitar.com Take our survey!
×
Author
Serpent 143
Ok this really got on my nerves, because i finished it then my computer crashed *sigh* 
hope you guys think its ok.

*Drop D tuning*
                                 __1______2____
E------------------------------------|---------
B------------------------------------|---------
G--77--------------------------------|-7-------
D--77-4h5-7-77-4h5p4--000000-4h5p4-00|-7-(hold)
A--55-------77------7----------------|-5-------
D-----------77-----------------------|-------(2 times)

----------------------------------------------
----------------------------------------------
----------------------------------------------
----------------------------------------------
-------0...............-----------------------
-------0...............-----------------------
Anymore..
pm..........................building up......

<>
----------------------------------------------
----------------------------------------------
-7........------------------------------------
-7........-----------------5.....-------------
-5........-----------------5.....-------------
---------------------------5.....-------------
be...... I will bring you down (this rhythm carries on
through all the chorus)

<>

Then back to the start then once through the second time once you come before the chorus 
play this..
----------------------------------------------
----------------------------------------------
--7777-9999-11-11-11--9999--------------------
--7777-9999-11-11-11--9999--------------------
--5555-7777--9--9--9--7777--------(FAST)------
----------------------------------------------

then go to the chorus..

____Solo____

--------3----3-3b(4)-3------------------------
--4--6----4------------4--4--4h6p4h6----------
----------------------------------------------
----------------------------------------------
----------------------------------------------
----------------------------------------------

-------3---3-3b(4)-3----6p4\3---3h4-6-6-------
--4--6---4------------------------------------
----------------------------------------------
----------------------------------------------
----------------------------------------------
----------------------------------------------

-3h4-6-6------4p3p1---3p1---------------------
--------------------------4-------------------
----------------------------------------------
----------------------------------------------
----------------------------------------------
----------------------------------------------

----------------------------------------------
---4h6p4--4h6p4--4h6p4-..etc..----------------
----------------------------------------------
----------------------------------------------
----------------------------------------------
----------------------------------------------

----------------------------------------------
----------------------------------------------
---8...---------------------------------------
---8...-------------------0-------------------
---6...-------------------0-------------------
--------------------------0-------------------
Youre giving up  ......need

-------3--------------------------------------
---4h6---------(then again on another guitar i think)
----------------------------------------------
----------------------------------------------
----------------------------------------------
----------------------------------------------

----------------------------------------------
----------------------------------------------
--9......-------------------------------------
--9......------3...---------------------------
--7......------3...---------------------------
---------------3...---------------------------
               Try so hard not to...

----------------------------------------------
----------------------------------------------
---6...---------------------------------------
---6...---------------------------------------
---4...---------------------------------------
----------------------------------------------
..Everything

----------------------------------------------
----------------------------------------------
----------------------------------------------
----------------------------------------------
-0.......-------------------------------------
-0.......-------------------------------------

pm...........building up...................





----------------------------------------------
----------------------------------------------
11....------8....-----9..---------------------
11....------8....-----9..---------------------
-9....------6....-----7..---------------------
----------------------------------------------
                 .....Now i see..

----------------------------------------------
----------------------------------------------
-12...----11..---9----------------------------
-12...----11..---9----------------------------
-10...-----9..---7----------------------------
----------------------------------------------
Im not the only one..

outro repeats four times then ends on
-------------
-------------
----7--------
----7--------
----5--------
-------------

Phew ive finally finished after my second attempt to do it..

Please tell me your comments...
Suggest correction new What's this?
You can suggest a correction to this tab. Community and Mods will review your correction and vote to approve or reject it.
comments
print report bad tab
8 comments total. Showing first comments.
0 reply
MuDvAyNeROCK 0 wrote on March 3 2002, 12:00 am

ok thats it im posting my version cuz all of the versions of the full song suck ass

0 reply
Achilles 11 wrote on March 3 2002, 12:00 am

Hey, what the hell are you going on about, this is fine, maybe if u played it better

0 reply
MuDvAyNeROCK 0 wrote on March 4 2002, 12:00 am

no this tab sucks balls and so do you! have u looked at the fucking solo???

guest
You may want to rate the tab now too:
select rating
Please do not post tabs as comments. Select "correction" instead!