Oops, an error
Loading. Please wait.

Handle This Tab

version 4
52,581 views 78 this week
16 commentsread comments
1 2 3 4 5
excellent!
x 60
add to favorites
launch autoscroll
font size
0
reset
how to read this tab
guitar tuner
Autoscroll
slow
fast
+/-
esc
set tempo
stop
Help us to improve Ultimate-Guitar.com Take our survey!
×
Tabbed by: Loudboy
Site: http://www.rapid-design.net
Email: John@rapid-design.net
Tuning: Standard Tuning (E-A-D-G-B-E)

I looked at some of the other tabs at tabs sites and they were all so weird and
complicated. Made mine easy.  Just play straight through the song in the order
I have it tabbed out. :)

Intro
e|---------------------------------------------------------------------------|
B|---------------------------------------------------------------------------|
G|---------------------------------------------------------------------------|
D|-7-7---4-5-7-----4-5-4------------4-5-4---------------play twice-----------|
A|-5-5---------7-7-------7-7-555555------------------------------------------|
E|-------------5-5-----------333333------------------------------------------|

Verse 1
e|---------------------------------------------------------------------------|
B|---------------------------------------------------------------------------|
G|-7-----------------------------let-----------------------------------------|
D|-7-----------------------------ring----------------------------------------|
A|-5-------------------------------------------------------------------------|
E|---------------------------------------------------------------------------|

Pre-Chorus
e|---------------------------------------------------------------------------|
B|---------------------------------------------------------------------------|
G|--------------------------------77777777777--------------------------------|
D|--777777777---------------------55555555555--------------------------------|
A|--555555555-777777777-99999999---------------------------------------------|
E|------------555555555-77777777---------------------------------------------|
P.M.****************************

Chorus
e|---------------------------------------------------------------------------|
B|---------------------------------------------------------------------------|
G|---------------------------------------------------------------------------|
D|-----------7777------2222------7777------2222------------------------------|
A|-9999-5555-5555-7777-2222-5555-5555-7777-2222-5555-------------------------|
E|-7777-3333------5555-0000-3333------5555-0000-3333-------------------------|

Play before Verse 2
e|---------------------------------------------------------------------------|
B|---------------------------------------------------------------------------|
G|---------------------------------------------------------------------------|
D|-7-7---4-5-7-----4-5-4------------4-5-4---------------play twice-----------|
A|-5-5---------7-7-------7-7-555555------------------------------------------|
E|-------------5-5-----------333333------------------------------------------

Verse 2
e|---------------------------------------------------------------------------|
B|---------------------------------------------------------------------------|
G|-7------------------------------let----------------------------------------|
D|-7------------------------------ring---------------------------------------|
A|-5-------------------------------------------------------------------------|
E|---------------------------------------------------------------------------|

Pre-Chorus 2
	Guitar One								    
e|---------------------------------------------------------------------------|
B|---------------------------------------------------------------------------|
G|---------------------------------------------------------------------------|
D|---------------------------------------------------------------------------|
A|-7777777777777777-9999999999999999--55555555555555555555555555555555-------|
E|-5555555555555555-7777777777777777--33333333333333333333333333333333-------|
P.M*********************************
	Guitar Two
e|---------------------------------------------------------------------------|
B|-----23------23-------23------23--------------------7777-8888-10-10-10-10--|
G|-2222-----222-----2222-----222----------------------xxxx-xxxx-x--x--x--x---|
D|----------------------------------------------------4444-5555-7--7--7--7---|
A|---------------------------------------------------------------------------|
E|---------------------------------------------------------------------------|

e|---------------------------------------------------------------------------|
B|-8888----------------------------------------------------------------------|
G|-xxxx----------------------------------------------------------------------|
D|-5555----------------------------------------------------------------------|
A|---------------------------------------------------------------------------|
E|---------------------------------------------------------------------------|

Chorus 2
e|---------------------------------------------------------------------------|
B|---------------------------------------------------------------------------|
G|---------------------------------------------------------------------------|
D|-----------7777------2222------7777------2222------------------------------|
A|-9999-5555-5555-7777-2222-5555-5555-7777-2222-5555-------------------------|
E|-7777-3333------5555-0000-3333------5555-0000-3333-------------------------|

Solo
e|-------------14-14-14b-------------------14-14-14b-------------------------|
B|-------17-15-----------15-12-15-17-15-17-----------15-15-12----------------|
G|-11-14------------------------------------------------------14-12-11-12-14-|
D|---------------------------------------------------------------------------|
A|---------------------------------------------------------------------------|
E|---------------------------------------------------------------------------|

e|---------------------------------------------------------------------------|
B|-------------------12-------------------------15--15--15--15--15--15--15---|
G|-14-11-13-14-14-14----14-12-11----11------------14--14--14--14--14--14--14-|
D|-------------------------------14----14-12---------------------------------|
A|---------------------------------------------------------------------------|
E|---------------------------------------------------------------------------|

After Solo
	Guitar One
e|---------------------------------------------------------------------------|
B|----------------3-5-7----3-5-7---------------------------------------------|
G|---------------------------------------------------------------------------|
D|------------77--------77-----------------22222222----------xxxxxxxx--------|
A|-55555555---55--------55--------77777777-22222222-55555555-xxxxxxxx--------|
E|-33333333-----------------------55555555-00000000-33333333-xxxxxxxx--------|
	Guitar Two
e|-------------------------2-3-5---------------------------------------------|
B|---------------------------------------------------------------------------|
G|---------------------------------------------------------------------------|
D|---------------------------------------------------------------------------|
A|---------------------------------------------------------------------------|
E|---------------------------------------------------------------------------|

Chorus 3(a little different then the other two)
e|---------------------------------------------------------------------------|
B|---------------------------------------------------------------------------|
G|---------------------------------------------------------------------------|
D|-----------7777------2222----------------7777------2222------7777------2222|
A|-9999-5555-5555-7777-2222-5555-9999-5555-5555-7777-2222-5555-5555-7777-2222|
E|-7777-3333------5555-0000-3333-7777-3333------5555-0000-3333------5555-0000|

e|---------------------------------------------------------------------------|
B|---------------------------------------------------------------------------|
G|---------------------------------------------------------------------------|
D|---------------------------------------------------------------------------|
A|-5555----------------------------------------------------------------------|
E|-3333----------------------------------------------------------------------|

Outro
e|---------------------------------------------------------------------------|
B|---------------------------------------------------------------------------|
G|---------------------------------------------------------------------------|
D|-7777777777-----------------------777----------play four times-------------|
A|-5555555555-7777777777-5555555555-555-77777--------------------------------|
E|------------5555555555-3333333333-----55555--------------------------------|

| /  slide up
| \  slide down
| h  hammer-on
| p  pull-off
| ~  vibrato
| +  harmonic
| x  Mute note

===============================================================================
Suggest correction new What's this?
You can suggest a correction to this tab. Community and Mods will review your correction and vote to approve or reject it.
comments
print report bad tab
16 comments total. Showing first comments.
-1 reply
Baza14 119 wrote on February 19 2005, 12:00 am

its in drop D tunning

0 reply
feesk8ordie 1,467 wrote on September 28 2005, 07:21 am

perfect tab

0 reply
guitarm103 29 wrote on April 18 2006, 09:50 pm

its in drop d tuning and the intro is wrong

guest
You may want to rate the tab now too:
select rating
Please do not post tabs as comments. Select "correction" instead!