Oops, an error
Loading. Please wait.

Handle This Tab

version 5
7,486 views 6 this week
5 commentsread comments
1 2 3 4 5
x 15
add to favorites
launch autoscroll
font size
0
reset
how to read this tab
guitar tuner
Autoscroll
slow
fast
+/-
esc
set tempo
stop
Help us to improve Ultimate-Guitar.com Take our survey!
×
Author
Artist: Sum41
Song: Handle This

* = palm mute

Intro:
Guitar 1
e---------------------------------------------
B---------------------------------------------
G---------------------------------------------
D--0--0----7--7----5--5-x-x-x-x-5--5-x-x-x-x--
A--0--0----7--7----5--5-x-x-x-x-5--5-x-x-x-x--
D--0--0----7--7----5--5-x-x-x-x-5--5-x-x-x-x--

2nd Time End on:
e-----
B-----
G-----
D--0--
A--0--
D--0--

Guitar 2 
e------------------------------------------------
B------------------------------------------------
G--11/12-14---11/12\11--9-7-7-7-7-7-7--11/12\11--
D---x-x--x-----x-x---x--x-x-x-x-x-x-x---x--x--x--
A---9/10-12----9/10\-9--7-5-5-5-5-5-5---9/10\-9--
D------------------------------------------------

2nd Time End on:
e-----
B-----
G--7--
D--x--
A--5--
D-----

Verse 1:
e-------------------------------------------------------------------
B-------------------------------------------------------------------
G-------------------------------------------------------------------
D--0-0-0-0-0-0-0-0-0-0-0-0-0-0-0-0-2-2-2-2-2-2-2-2-2-2-2-2-2-2-2-2--
A--0-0-0-0-0-0-0-0-0-0-0-0-0-0-0-0-2-2-2-2-2-2-2-2-2-2-2-2-2-2-2-2--
D--0-0-0-0-0-0-0-0-0-0-0-0-0-0-0-0-2-2-2-2-2-2-2-2-2-2-2-2-2-2-2-2--
   * * * * * * * * * * * * * * * * * * * * * * * * * * * * * * * *

e-------------------------------------------------------------------
B-------------------------------------------------------------------
G--4-4-4-4-4-4-4-4-4-4-4-4-4-4-4-4----------------------------------
D--4-4-4-4-4-4-4-4-4-4-4-4-4-4-4-4-5-5-5-5-5-5-5-5-5-5-5-5-5-5-5-5--
A--2-2-2-2-2-2-2-2-2-2-2-2-2-2-2-2-5-5-5-5-5-5-5-5-5-5-5-5-5-5-5-5--
D----------------------------------5-5-5-5-5-5-5-5-5-5-5-5-5-5-5-5--
   * * * * * * * * * * * * * * * * * * * *  

Chorus:
e--------------------------------------------------------------------------
B--------------------------------------------------------------------------
G--4--4--4--4--------------7--7--7--7--------------------------------------
D--4--4--4--4--5--5--5--5--7--7--7--7--7--7--7--7--2--2--2--2--5--5--5--5--
A--2--2--2--2--5--5--5--5--5--5--5--5--7--7--7--7--2--2--2--2--5--5--5--5--
D--------------5--5--5--5--------------7--7--7--7--2--2--2--2--5--5--5--5--

e--------------------------------------------------
B--------------------------------------------------
G--7--7--7--7--------------------------------------
D--7--7--7--7--7--7--7--7--2--2--2--2--5--5--5--5--
A--5--5--5--5--7--7--7--7--2--2--2--2--5--5--5--5--
D--------------7--7--7--7--2--2--2--2--5--5--5--5--

Verse 2: (Guitar 1)
e-------------------------------------------------------------------
B-------------------------------------------------------------------
G--2-2-2-2-2-2-2-2-2-2-2-2-2-2-2-2-4-4-4-4-4-4-4-4-4-4-4-4-4-4-4-4--
D--2-2-2-2-2-2-2-2-2-2-2-2-2-2-2-2-4-4-4-4-4-4-4-4-4-4-4-4-4-4-4-4--
A--0-0-0-0-0-0-0-0-0-0-0-0-0-0-0-0-2-2-2-2-2-2-2-2-2-2-2-2-2-2-2-2--
D-------------------------------------------------------------------
   * * * * * * * * * * * * * * * * * * * * * * * * * * * * * * * * 
e-------------------------------------------------------------------------------
B-------------------------------------------------------------------------------
G----------------------------------11-11-11-11/12-12-12-12\11-11-11-11\7-7-7-7--
D--5-5-5-5-5-5-5-5-5-5-5-5-5-5-5-5----------------------------------------------
A--5-5-5-5-5-5-5-5-5-5-5-5-5-5-5-5--9--9--9--9/10-10-10-10\-9--9--9--9\5-5-5-5--
D--5-5-5-5-5-5-5-5-5-5-5-5-5-5-5-5----------------------------------------------

Verse 2: (Guitar 2)
e---------------------------------
B----------2---3-----------2---3--
G--2-2-2-2---2---2-2-2-2-2---2----
D---------------------------------
A---------------------------------
D---------------------------------
   * * * *   *   * * * * *   *
Solo: (Guitar 1)
e----------12--10--14-14h15-14-------------------14-14h15-14-----------------
B------10----------------------15/12-15h17p15h17--------------15--12--10-----
G--11--------------------------------------------------------------------12--
D----------------------------------------------------------------------------
A----------------------------------------------------------------------------
D----------------------------------------------------------------------------

e-------------------------------------------------------12-14----10----14-12--
B----------------------------------------------------10-------10----10--------
G--11h12-14-14-11h12-14-14-14h16p14-12p11\9-12p11-----------------------------
D-------------------------------------------------12--------------------------
A-----------------------------------------------------------------------------
E-----------------------------------------------------------------------------

e--12p10----12p10----12p10----12p10----12p10-------------
B--------10-------10-------10-------10-------10--10--10--
G--------------------------------------------------------
D--------------------------------------------------------
A--------------------------------------------------------
E--------------------------------------------------------

Guitar 2 underneath solo:
e--------------------------------------------------
B--------------------------------------------------
G--7--7--7--7--------------------------------------
D--7--7--7--7--7--7--7--7--2--2--2--2--5--5--5--5--
A--5--5--5--5--7--7--7--7--2--2--2--2--5--5--5--5--
D--------------7--7--7--7--2--2--2--2--5--5--5--5--

Verse 3: (Guitar 1)
e-------------------------------------------------------------------------
B-------------------------------------------------------------------------
G--------------------------------------------------7--7-------------------
D--5--5--5--5--5--5--5--5--5--5--5--5--5--5--5--5--7--7---0--0---x-x-x-x--
A--5--5--5--5--5--5--5--5--5--5--5--5--5--5--5--5--5--5---0--0---x-x-x-x--
D--5--5--5--5--5--5--5--5--5--5--5--5--5--5--5--5---------0--0---x-x-x-x--

Verse 3:: (Guitar 2)
e------------------------------------------------------------------------
B---------------------------------------------------------------7/8/10~--
G---------------------------------------------------7/9/11~\----7/9/11~--
D--5--5--5--5--5--5--5--5--5--5--5--5--5--5--5--5------------------------
A--5--5--5--5--5--5--5--5--5--5--5--5--5--5--5--5------------------------
D--5--5--5--5--5--5--5--5--5--5--5--5--5--5--5--5------------------------

Pre-Chorus:
e-----------------------------------------------------------------------
B-----------------------------------------------------------------------
G-----------------------------------------------------------------------
D--7--7--7--7--7--7--7--7--2--2--2--2--2--2--2--5--5--5--5--5--5--5--5--
A--7--7--7--7--7--7--7--7--2--2--2--2--2--2--2--5--5--5--5--5--5--5--5--
D--7--7--7--7--7--7--7--7--2--2--2--2--2--2--2--5--5--5--5--5--5--5--5--

e-----------------------------------
B-----------------------------------
G-----------------------------------
D--5-5-5-5-5-5-5-5-5-5-5-5-5-5-5-5--
A--5-5-5-5-5-5-5-5-5-5-5-5-5-5-5-5--
D--5-5-5-5-5-5-5-5-5-5-5-5-5-5-5-5--
   * * * * * * * * *

Verse 3:
e-------------------------------------------------------------------
B-------------------------------------------------------------------
G--7-7-7-7-7-7-7-7-7-7-7-7-7-7-7-7----------------------------------
D--7-7-7-7-7-7-7-7-7-7-7-7-7-7-7-7-7-7-7-7-7-7-7-7-7-7-7-7-7-7-7-7--
A--5-5-5-5-5-5-5-5-5-5-5-5-5-5-5-5-7-7-7-7-7-7-7-7-7-7-7-7-7-7-7-7--
D----------------------------------7-7-7-7-7-7-7-7-7-7-7-7-7-7-7-7--

e---------------------------------------------------
B---------------------------------------------------
G-------------------------7--7--7-7-----------------
D--5---x-x-5--5-5-5-5-5-5-7--7--7-7-7--7-7-7-7-7-7--
A--5---x-x-5--5-5-5-5-5-5-5--5--5-5-7--7-7-7-7-7-7--
D--5---x-x-5--5-5-5-5-5-5-----------7--7-7-7-7-7-7--

THIS SONG ROCKS
Suggest correction
comments
print report bad tab
5 comments total. Showing first comments.
+3 reply
No Remorse 10 Aug 21, 2004 12:00 AM

this is a very excellent tab...solo is perfect, everything else is right also...very nice tab and fun song to play :)

+1 reply
guitarm103 10 Apr 18, 2006 09:53 PM

this tab is so dead on correct its not funny

+1 reply
dostacysmom69 31 May 09, 2006 09:25 PM

PERFECT- Solo is the only correct one on the internet, nice job

guest
You may want to rate the tab now too:
select rating
Wanna post a correction for this tab? Suggest correction