Oops, an error
Loading. Please wait.

Handle This Tab

version 7
743 views 3 this week
no commentswrite comment
1 2 3 4 5
please rate
add to favorites
launch autoscroll
font size
0
reset
how to read this tab
guitar tuner
Autoscroll
slow
fast
+/-
esc
set tempo
stop
Help us to improve Ultimate-Guitar.com Take our survey!
×
Author
----------------------------------------------------------------------------
                             Handle This - Sum 41
----------------------------------------------------------------------------
Tabbed by: GVS_24
Email: firebirdphoenix24@live.com

Tuning: Drop D (DADGBE)

The Verse clearly is two guitars (Deryck's guitar playing the heavier chords and Dave's 
playing The chords along with the lead riff)
I'll only be tabbing Dave's guitar for this tab seeing as I dont have enough time to tab 
Deryck's.

(Verse 00:01) Heavy Distortion and slight reverb
e|--------------------------------------------------------------------------|
B|--------------------------------------------------------------------------|
G|--------------------------------------------------------------------------|
D|-0-0-----------7-7------------5x-5x-5x-5x-5x------------------------------|
A|-0-0--9-10-12/-7-7--9-10-9-7--5x-5x-5x-5x-5x--9-10-9/---------------------|
D|-0-0-----------7-7------------5x-5x-5x-5x-5x------------------------------|


e|--------------------------------------------------------------------------|
B|--------------------------------------------------------------------------|
G|--------------------------------------------------------------------------|
D|-0-0-----------7-7------------5x-5x-5x-5x-5x------------0-----------------|
A|-0-0--9-10-12/-7-7--9-10-9-7--5x-5x-5x-5x-5x--9-10-9/---0-(Ring out)------|
D|-0-0-----------7-7------------5x-5x-5x-5x-5x------------0-----------------|


(Pre-chorus 00:22)
e|--------------------------------------------------------------------------|
B|--------------------------------------------------------------------------|
G|------------------------------------444444444444444-----------------------|
D|--000000000000000--777777777777777--444444444444444--5-5-5-5-5-5-555------|
A|--000000000000000--777777777777777--222222222222222--5-5-5-5-5-5-555------|
D|--000000000000000--777777777777777-------------------5-5-5-5-5-5-555------|
    ...............  ...............  ...............

(Chorus 00:33)
e|--------------------------------------------------------------------------|
B|--------------------------------------------------------------------------|
G|--------------------------------------------------------------------------|
D|--4-4-4-44--5-5-5-55--7-7-7-77--7-7-7-77--2-2-2-2\5-5-5-5--7-7-7-77-------|
A|--2-2-2-22--5-5-5-55--5-5-5-55--7-7-7-77--2-2-2-2\5-5-5-5--5-5-5-55-------|
D|------------5-5-5-55------------7-7-7-77--2-2-2-2\5-5-5-5-----------------|


e|--------------------------------------------------------------------------|
B|--------------------------------------------------------------------------|
G|--------------------------------------------------------------------------|
D|-7-7-7-77--2-2-2-2\5-5-5-5------------------------------------------------|
A|-7-7-7-77--2-2-2-2\5-5-5-5------------------------------------------------|
D|-7-7-7-77--2-2-2-2\5-5-5-5------------------------------------------------|

*Repeat Verse

(Bridge 01:11)
e|--------------------------------------------------------------------------|
B|----------2-3---------2-3----------2-3---------2-3------------------------|
G|---222-2-2-----222-2-2-----222--2-2-----222-2-2---------------------------|
D|--------------------------------------------------------------------------|
A|--------------------------------------------------------------------------|
D|--------------------------------------------------------------------------|
     ...   .    ...   .      ...   .      ...   .

                                  V Those are 10's and 11's
e|--------------------------------------------------------------------------|
B|--------------------------------------------------------------------------|
G|--------------------------------------------------------------------------|
D|--5-5-5-5-5-5-555----11-11-11-11--11-11-11-11--11-11-11-11-9-9-9-9--------|
A|--5-5-5-5-5-5-555----9--9--9--9---10-10-10-10--9--9--9--9--7-7-7-7--------|
D|--5-5-5-5-5-5-555---------------------------------------------------------|


*Repeat chorus (01:23)

(Solo 01:38)  There may be a few mistakes, try and correct if needed
e|---------------14-14b(15)---------------------14-14b(15)------------------|
B|---------17-15-----------15------15h16p15h16-------------15---------------|
G|--\11-12----------------------16------------------------------16-14-12-11-|
D|--------------------------------------------------------------------------|
A|--------------------------------------------------------------------------|
D|--------------------------------------------------------------------------|


e|--------------------------------------------------------------------------|
B|--------10-10--------10-10---10h12p10-------------------------------------|
G|--11-12--------11-12-------------------12p11----12p11-------7-7-7-7-------|
D|---------------------------------------------12------------7-7-7-7--------|
A|------------------------------------------------------12------------------|
D|--------------------------------------------------------------------------|


e|--------------------------------------------------------------------------|
B|--------------------------------------------------------------------------|
G|--15h17p15--15h17p15------------------------------------------------------|
D|--------------------------------------------------------------------------|
A|--------------------------------------------------------------------------|
D|--------------------------------------------------------------------------|


(2nd Bridge 01:55)
e|--------------------------------------------------------------------------|
B|-------------------------3\5\7~------3\5\7~-------------------------------|
G|--------------------------------------------------------------------------|
D|--5555555555555555--0-0----------0-0--------------------------------------|
A|--5555555555555555--0-0----------0-0--------------------------------------|
D|--5555555555555555--0-0----------0-0--------------------------------------|


                                                     Slowly release PM
e|--------------------------------------------------------------------------|
B|--------------------------------------------------------------------------|
G|--------------------------------------------------------------------------|
D|-7-7-7-7-7-7-7-7--2-2-2-2-2-2-2-2--5-5-5-5-5-5-5-5--555555555555555-------|
A|-7-7-7-7-7-7-7-7--2-2-2-2-2-2-2-2--5-5-5-5-5-5-5-5--555555555555555-------|
D|-7-7-7-7-7-7-7-7--2-2-2-2-2-2-2-2--5-5-5-5-5-5-5-5--555555555555555-------|
                                                      ............

*Repeat chorus 2x (02:18)


(Outro 02:42)                            V should make a harmonic buzz
e|--------------------------------------------------------------------------|
B|--------------------------------------------------------------------------|
G|--------------------------------------------------------------------------|
D|-0-0-0-0-0-0-0-0--7-7-7-7-7-7-7-7--2-2xx--5--5-5-5--7-7-77-7---77---------|
A|-0-0-0-0-0-0-0-0--7-7-7-7-7-7-7-7--2-2xx--5--5-5-5--5-5-55-7---77---------|
D|-0-0-0-0-0-0-0-0--7-7-7-7-7-7-7-7--2-2xx--5--5-5-5---------7---77---------|

Repeat until end of song. And end on..

e|--------------------------------------------------------------------------|
B|--------------------------------------------------------------------------|
G|--------------------------------------------------------------------------|
D|--7-----------------------------------------------------------------------|
A|--7-(Let ring out with singing)-------------------------------------------|
D|--7-----------------------------------------------------------------------|


Song Structure
------------
Verse x1
Pre-Chorus x1
Chorus x1
Verse x1
Bridge x1
Guitar solo
Bridge 2 x1
Chorus x2
Outro x4

Notation Legend
************************************
| ()  bend the previous note to this note
| .   palm mute
| /   slide up
| \   slide down
| h   hammer-on
| p   pull-off
| ~   vibrato
| +   harmonic
| x   Dead note
| b   Bend
| pb  Pre-bend
| br  Bend release
| pbr Pre-bend release
| brb Bend release bend

************************************
Suggest correction
What's this?
You can suggest a correction to this tab. Community and Mods will review your correction and vote to approve or reject it.
comments
We did not receive enough feedback on this tab! Please rate:
print report bad tab
1 2 3 4 5
guest
You may want to rate the tab now too:
select rating
Please do not post tabs as comments. Select "correction" instead!