Oops, an error
Loading. Please wait.

Heart Attack Bass Tab

version 1
version 1

Whole song

Interactive

1,272 views 6 this week
no commentswrite comment
1 2 3 4 5
accurate
x 3
add to favorites
launch autoscroll
font size
0
reset
guitar tuner
Autoscroll
slow
fast
+/-
esc
set tempo
stop
Help us to improve Ultimate-Guitar.com Take our survey!
×
Author
Heart Attack                Sum 41



 Intro
  Moderately Fast Rock Q=170
 4/4
  Gtr I
  Wx3          H    Q  Q    W           W           W           +W
|------------|------------|----------|-----------|-----------|---------||
|------------|------------|----------|-11--------|-13--------|-(13)----||
|------------|---------4S=|=9--------|-----------|-----------|---------||
|------------|------------|----------|-----------|-----------|---------||


 Verse
  E E E E H      Q.   E +Q   Q    H.      Q    Q.   E +Q   Q
|-----3S4-6----|----------------|------------|-4----3-(3)-----|
|---4----------|-6--------------|---------4--|-------------6--|
|--------------|------4-(4)--6--|-2----------|----------------|
|-2------------|----------------|------------|----------------|


  E E E E H      Q.   E +Q   Q    H.      Q    Q.   E +Q   Q
|-----3S4-6----|----------------|------------|-4----3-(3)-----|
|---4----------|-6--------------|---------4--|-------------6--|
|--------------|------4-(4)--6--|-2----------|----------------|
|-2------------|----------------|------------|----------------|


  E E E E E E E E   E E E E E E E E   E E E E E E E E   E E E E E E E E
|-----------------|-----------------|-----------------|-----------------|
|-4-4-4-4-4-4-4-4-|-----------------|-----------------|-----------------|
|-----------------|-4-4-4-4-4-4-4-4-|-2-2-2-2-2-2-2-2-|-2-2-2-2-2-2-4-4-|
|-----------------|-----------------|-----------------|-----------------|


                                                        Triplet Feel Q=170(8=s8)
  E E E E E E E E   E E E E E E E E   E E E E E E E E   E E E E E E E E
|-----------------|-----------------|-----------------|-----------------||
|-----------------|-----------------|-----------------|-----------------||
|-----------------|-4-4-4-4-4-4-4-4-|-2-2-2-2-2-2-2-2-|-4---4---4---4---||
|-2-2-2-2-2-2-2-2-|-----------------|-----------------|-----------------||


 Chorus
  $
  Q  Q  Q  Q    Q  Q  Q  Q    Q  Q  Q  Q    Q  Q  Q  Q
|-------------|-------------|-------------|-------------|
|-------------|-------------|-------------|-------------|
|-------------|-------2--2--|-------------|-------2--2--|
|-2--2--2--2--|-0--0--------|-2--2--2--2--|-0--0--------|


                                             Normal Feel Q=170
                                                  To Coda
  Q  Q  Q  Q    Q  Q  Q  E E   Q  Q  Q  Q    Q  E E Q  Q
|-------------|--------------|-------------|--------------||
|-------------|--------------|-------------|--------------||
|-------------|-------2--1-2-|-------------|-4----2-2--2--||
|-2--2--2--2--|-0--0---------|-2--2--2--2--|--------------||


                                                            2/4
  E E E E E E  E E   E E E E E E  E E    E E  E E E E  E E   E E E E
|------------------|------------------|--------------------|----------|
|---------9-8----8-|---------9-8----8-|-----------9-8----8-|----------|
|-9---9-------11---|-------------11---|---------------11---|-------8--|
|------------------|-9---9------------|-11---11------------|-6-7-9----|


 4/4
  E E E E E E  E E   E E E E E E  E E    E E  E E E E  E E
|------------------|------------------|--------------------|
|---------9-8----8-|---------9-8----8-|-----------9-8----8-|
|-9---9-------11---|-------------11---|---------------11---|
|------------------|-9---9------------|-11---11------------|


 2/4       4/4
  E E E E   W          +W
|---------|----------|--------||
|---------|----------|--------||
|---------|----------|--------||
|-6-7-6-7-|-9--------|-(9)----||


 Second Verse
  W          H    H      W          H    H
|----------|-----------|----------|-----------|
|----------|-----------|----------|-----------|
|----------|-4----6----|-2--------|-2----4----|
|-2--------|-----------|----------|-----------|


  W          H    H      W          H    H
|----------|-----------|----------|-----------|
|----------|-----------|----------|-----------|
|----------|-4----6----|-2--------|-2----4----|
|-2--------|-----------|----------|-----------|


  E E E E E E E E   E E E E E E E E   E E E E E E E E   E E E E E E E E
|-----------------|-----------------|-----------------|-----------------|
|-----------------|-----------------|-----------------|-----------------|
|-----------------|-4-4-4-4-4-4-4-4-|-2-2-2-2-2-2-2-2-|-4-4-4-4-4-4-4-4-|
|-2-2-2-2-2-2-2-2-|-----------------|-----------------|-----------------|


  E E E E E E E E   E E E E E E E E   E E E E E E E E
|-----------------|-----------------|-----------------|
|-----------------|-----------------|-----------------|
|-----------------|-4-4-4-4-4-4-4-4-|-2-2-2-2-2-2-2-2-|
|-2-2-2-2-2-2-2-2-|-----------------|-----------------|


                               Triplet Feel Q=170(8=s8)
                                 D.S. al Coda
  E E E E E E E E   W          E E E E E E E E
|-----------------|----------|-----------------||
|-4-4-3-3---------|----------|-----------------||
|---------6-6-4-4-|-2--------|-4---4---4---4---||
|-----------------|----------|-----------------||


 Interlude
  Normal Feel Q=170
  &
  E E Q  H      H    Q   Q     E Q  E Q  E E   +E  E Q  E E E E
|-------------|--------------|---------------|------------------|
|-------------|--------------|---------------|------------------|
|-------------|--------------|-----------2-2-|-(2)--------------|
|-2-2---------|------7\--7\--|-2-2--0-0------|-----0-0--6-7-6-4-|


  E Q  E Q  E E   +E  E Q  E E E E   E Q  E Q  E E
|---------------|------------------|---------------|
|---------------|------------------|---------------|
|-----------2-2-|-(2)--------------|-----------2-2-|
|-2-2--0-0------|-----0-0--6-7-6-4-|-2-2--0-0------|


  +E  E Q  E E E E   E Q  E Q  E E   +E  E Q  E E E E
|------------------|---------------|------------------||
|------------------|-4-4--2-2--1-1-|-(1)--------------||
|-(2)--------------|---------------|-----4-4----------||
|-----0-0--6-7-6-4-|---------------|----------6-7-6-4-||


 Third Verse
  H     H      Wx2          H    Q  Q
|------------|------------|------------|
|------------|------------|------------|
|-9\---------|------------|---------4S=|
|------------|------------|------------|


  W           W           W           +W
|----------|-----------|-----------|---------|
|----------|-11--------|-13--------|-(13)----|
|-9--------|-----------|-----------|---------|
|----------|-----------|-----------|---------|


  E E E E H      Q.   E +Q   Q    H.      Q    Q.   E +Q   Q
|-----3S4-6----|----------------|------------|-4----3-(3)-----|
|---4----------|-6--------------|---------4--|-------------6--|
|--------------|------4-(4)--6--|-2----------|----------------|
|-2------------|----------------|------------|----------------|


  E E E E H      Q.   E +Q   Q    E E E E E E E E
|-----3S4-6----|----------------|-----------------|
|---4----------|-6--------------|-----------------|
|--------------|------4-(4)--6--|-2-2-2-2-2-2-2-2-|
|-2------------|----------------|-----------------|


                               Triplet Feel Q=170(8=s8)
  E E E E E E E E   W          E E E E E E E E
|-----------------|----------|-----------------||
|-----------------|----------|-----------------||
|-4-4-4-4-4-4-4-4-|-2--------|-4---4---4---4---||
|-----------------|----------|-----------------||


 Third Chorus
  Q  Q  Q  Q    Q  Q  Q  Q    Q  Q  Q  Q    Q  Q  Q  Q
|-------------|-------------|-------------|-------------|
|-------------|-------------|-------------|-2--2--------|
|-------------|-------2--2--|-------------|-------2--2--|
|-2--2--2--2--|-0--0--------|-2--2--2--2--|-------------|


                                             Normal Feel Q=170
  Q  Q  Q  Q    Q  Q  Q  E E   Q  Q  Q  Q    Q  E E E +E  Q
|-------------|--------------|-------------|------------------||
|-------------|--------------|-------------|------------------||
|-------------|-------2--1-2-|-------------|-4----2-2-(2)s9\--||
|-2--2--2--2--|-0--0---------|-2--2--2--2--|------------------||


 Outro
  E Q  E Q  E E   +E  E Q  E E E E   E Q  E Q  E E   +E  E Q  E E E E
|---------------|------------------|---------------|------------------|
|---------------|------------------|---------------|------------------|
|-----------2-2-|-(2)--------------|-----------2-2-|-(2)--------------|
|-2-2--0-0------|-----0-0--6-7-6-4-|-2-2--0-0------|-----0-0--6-7-6-4-|


  E Q  E Q  E E   +E  E Q  E E E E   E Q  E Q  E E   +E  E Q  E E E E
|---------------|------------------|---------------|------------------|
|---------------|------------------|-4-4--2-2--1-1-|-(1)--------------|
|-----------2-2-|-(2)--------------|---------------|-----4-4----------|
|-2-2--0-0------|-----0-0--6-7-6-4-|---------------|----------6-7-6-4-|


  W          +W           +W           +W
|----------|------------|------------|--------*|
|----------|------------|------------|--------*|
|----------|------------|------------|--------*|
|-2--------|-(2)--------|-(2)--------|-(2)----*|

Suggest correction
What's this?
You can suggest a correction to this tab. Community and Mods will review your correction and vote to approve or reject it.
comments
We did not receive enough feedback on this tab! Please rate:
print report bad tab
1 2 3 4 5
guest
You may want to rate the tab now too:
select rating
Please do not post tabs as comments. Select "correction" instead!