Oops, an error
Loading. Please wait.

Heart Attack Tab

version 1
version 1

Whole song

Interactive

24,283 views 36 this week
12 commentsread comments
1 2 3 4 5
accurate
x 24
add to favorites
launch autoscroll
font size
0
reset
how to read this tab
guitar tuner
Tab Pro tools
  • play this tab
  • loop segment
  • change instrument
  • show fretboard
  • metronome
×
Best way to learn
"Heart Attack"
Autoscroll
slow
fast
+/-
esc
set tempo
stop
Sum 41, Heart Attack.
 Tabbed by Kornray00@netzero.net.
  
Artist: Sum 41
Album: All Killer No Filler
Song: Heart Attack

This version sounds right. If there are any problems, e-mail me at Kornray00@netzero.net Thanks.


Intro/Verse 1: (Remeber when there was nothing else to do...)
e----------------------------------------------------------------------------------
B----------------------------------------------------------------------------------
G----------11----------------11---------------11-----------------11----------------
D-----11------11---11---11------11---11---11------11---11---11------11---11--------
A---9----9-------9----8----8-------8-----------------------------------------------
D---------------------------------------9----9-------9----9----9-------9-----------

Pre-Chorus palm muted: (Early mornings, plauged by warnings...)
e----------------------------------------------------------------------------------------------------------
B----------------------------------------------------------------------------------------------------------
G----------------------------------------------------------------------------------------------------------
D----44444444--99999999--11-11-11-11-11-11-11-11-11-11-11-11-11-11-11-11-11-----11-x-11-x-11-x-11-x--------
A----44444444--99999999--11-11-11-11-11-11-11-11-11-11-11-11-11-11-11-11-11-----11-x-11-x-11-x-11-x--------
D----44444444--99999999--11-11-11-11-11-11-11-11-11-11-11-11-11-11-11-11-11-----11-x-11-x-11-x-11-x--------
PM ........................................................................ X2

Chorus: (Turn my head it's back to bed with no delay...)
e-------------------------|---------------------------
B-------------------------|---------------------------
G-------------------444---|------------6666--4444-----
D----4444444--2222--444---|---4444444--6666--4444-----
A----4444444--2222--222---|---4444444--4444--2222-----
D----4444444--2222--------|---4444444-----------------
  Guit. 1^                     Guit. 2^

Fill:
e-----------------------------------------------------------------
B-----------------------------------------------------------------
G--11-11-11-11-11-11-11-11-11-11-11-11--8--8--8--8--8--8----------
D--11-11-11-11-11-11-11-11-11-11-11-11--8--8--8--8--8--8----------
A---9--9--9--9--9--9--8--8--8--8--8--8--6--6--6--6--6--6-------8--
D---------------------------------------------------------8-9-8---

e--------------------------------------------------------------------
B--------------------------------------------------------------------
G--11-11-11-11-11-11-11-11-11-11-11-11--8--8--8--8--8--8-------------
D--11-11-11-11-11-11-11-11-11-11-11-11--8--8--8--8--8--8-------------
A---9--9--9--9--9--9--8--8--8--8--8--8--6--6--6--6--6--6-------------
D---------------------------------------------------------8-9-8-9-11-

Verse 2: (Remember when we would hang out everyday...)
e----------------------------------------------------------------------------------
B----------------------------------------------------------------------------------
G----------11----------------11---------------11-----------------11----------------
D-----11------11---11---11------11---11---11------11---11---11------11---11--------
A---9----9-------9----8----8-------8-----------------------------------------------
D---------------------------------------9----9-------9----9----9-------9-----------

e----------------------------------------------------------------------------------
B----------------------------------------------------------------------------------
G----------11----------------11---------------11-----------------11----------------
D-----11------11---11---11------11---11---11------11---11---11------11---11--------
A---9----9-------9----8----8-------8-----------------------------------------------
D---------------------------------------9----9-------9----9----9-------9-----------

Pre-Chorus: (Never boring, with slept in mornings...)
e------|-----------------------------------------------------|----------------------
B------|-----------------------------------------------------|----------------------
G------|-------------10---10---------------------------------|----------------------
D--333-|--444-444-----x----x----999-999-11-11-11-11-11-11----|-11-x-11-x-11-x-11-x--
A--333-|--444-444--88-8-88-8----999-999-11-11-11-11-11-11----|-11-x-11-x-11-x-11-x--
D--333-|--444-444---------------999-999-11-11-11-11-11-11----|-11-x-11-x-11-x-11-x--
PM....   ..  ..   ..   ..       ..  ..  .. ..    .. ..
         Repeat once^ 

Chorus: (Turn my head it's back to bed with no delay...)
e-------------------------|---------------------------
B-------------------------|---------------------------
G-------------------444---|------------6666--4444-----
D----4444444--2222--444---|---4444444--6666--4444-----
A----4444444--2222--222---|---4444444--4444--2222-----
D----4444444--2222--------|---4444444-----------------
  Guit. 1^                     Guit. 2^

Interlude:
e----------------------------------|------------------------
B----------------------------------|------------------------
G----------------------------------|---------44-------------
D-11-11-11-11-11-11-11-11-11-------|-44--22--44--22-898-4---
A--x--x--x--x--x--x--x--x--x-------|-44--22--22--22-898-4---
D--9--9--9--9--9--9--9--9--9---/12-|-44--22------22-898-4---
 Guit. 1^ (Play once alone)          Guit. 2^ (Play under Guit. 1's part)

Verse 3: (What's the day when it all ends up the same...)
e----------------------------------------------------------------------------------
B----------------------------------------------------------------------------------
G----------11----------------11---------------11-----------------11----------------
D-----11------11---11---11------11---11---11------11---11---11------11---11--------
A---9----9-------9----8----8-------8-----------------------------------------------
D---------------------------------------9----9-------9----9----9-------9-----------

e----------------------------------------------------------------------------------
B----------------------------------------------------------------------------------
G----------11----------------11---------------11-----------------11----------------
D-----11------11---11---11------11---11---11------11---11---11------11---11--------
A---9----9-------9----8----8-------8-----------------------------------------------
D---------------------------------------9----9-------9----9----9-------9-----------

Pre-Chorus: (I can't make time when nothings new...)
e---------------------------------------------------
B---------------------------------------------------
G---------------------------------------------------
D---4444444---999999-9--11-x-11-x-11-x-11-x-11-x----
A---4444444---999999-9--11-x-11-x-11-x-11-x-11-x----
D---4444444---999999-9--11-x-11-x-11-x-11-x-11-x----
PM..................

Chorus: (Turn my head it's back to bed with no delay...)
e-------------------------|---------------------------
B-------------------------|---------------------------
G-------------------444---|------------6666--4444-----
D----4444444--2222--444---|---4444444--6666--4444-----
A----4444444--2222--222---|---4444444--4444--2222-----
D----4444444--2222--------|---4444444-----------------
  Guit. 1^                     Guit. 2^

Outro
e------------------------
B------------------------
G---------44-------------
D-44--22--44--22-898-4---
A-44--22--22--22-898-4---
D-44--22------22-898-4---
(Play this first)^ X3
e------------------------------
B------------------------------
G------------------------------
D-11-11-11-11-11-11-11-11-11---
A--x--x--x--x--x--x--x--x--x---
D--9--9--9--9--9--9--9--9--9---
(Play after first guitar)X2 
:: Ultimate Guitar Archive :: 
http://www.ultimate-guitar.com 



comments
print report bad tab
12 comments total. Showing first comments.
0 reply
rwreed1000 wrote on May 14 2002, 12:00 am

Bass note in intro should be 11, not 9 at the end.
Not bad though

0 reply
rwreed1000 wrote on May 14 2002, 12:00 am

Bass note in intro: 11, not 9 (at the end)
Not too bad though

0 reply
rwreed1000 wrote on May 14 2002, 12:00 am

Sorry - I'll stop writing now (my mistake)

I want to post or [tab]
guest
You may want to rate the tab now too:
select rating
Please do not post tabs as comments. Select "correction" instead!