Oops, an error
Loading. Please wait.
We have an official Hell Song tab made by UG professional guitarists. Check out the tab »
×
49,747 views 51 this week
3 commentsread comments
1 2 3 4 5
x 15
add to favorites
launch autoscroll
font size
0
reset
how to read this tab
guitar tuner
×
Best way to learn
"Hell Song"
Autoscroll
slow
fast
+/-
esc
set tempo
stop
Tuning:Standard
e|--------------------------------------------------------------------------|
B|-------------------------9----------------------9-------------------------|
G|-------------------------11^-------------------11^------------------------|
D|-6-6---6-6---6-6---6-6----------------------------------------------------|
A|-6-6---6-6---6-6---6-6----------------------------------------------------|
E|-4-4---4-4---4-4---4-4----------------------------------------------------|
   . .   . .   . .   . .

e|----------------------------------------------|
B|----------------------------------------------|
G|--11~-11-11-11-9-8-6---8h9p8-6h8p6-4h6p4-3----| (play the hammer on and
D|----------------------------------------------| pull off part very fast!)
A|----------------------------------------------|
E|----------------------------------------------|

e|-----------------------------------------------------------------------------|
B|-----------------------------------------------------------------------------|
G|-4-/6-/8-9-8-4-/6-/8-3h4p3h4p3h4p3h4p3-4h6p4h6p4h6p4h6p4-6h8p6h8p6h8p6h8p6---|
D|-----------------------------------------------------------------------------|
A|-----------------------------------------------------------------------------|
E|-----------------------------------------------------------------------------|

e|---------------------------------------------------------------|
B|----------------------9-----11--11--12--12--14-----------------|
G|--8h9p8h9p8h9p8h9p8---11^---13^-13^-14^-14^-16^----------------|
D|---------------------------------------------------------------|
A|---------------------------------------------------------------|
E|---------------------------------------------------------------|

e|-----------------------------------------------------14----------|
B|-----14^--14^-14^-14-12-------14-14b---12-14~---14b-----14-12----|
G|-13---------------------13------------------------------------13-|
D|-----------------------------------------------------------------|
A|-----------------------------------------------------------------|
E|-----------------------------------------------------------------|

e|--------14-------------------------------------------------------------------|
B|---14b-----14-12-11--11-11hp12h11---9----9-----------------------------------|
G|--------------------------------------11---11-----8--------------------8~----|
D|----------------------------------------------11------11-9-11-9-9-11-9-9~----|
A|-----------------------------------------------------------------------------|
E|-----------------------------------------------------------------------------|

e|-----------|
B|-----------|
G|-----------|
D|--/6---4---|
A|--/6---4---|
E|--/4---2---|


************************************

| .  Staccato
| h  Hammer-on
| p  Pull-off
| ~  Vibrato
| /  Slide up
| b  Bend

************************************
Suggest correction
comments
print report bad tab
3 comments total.
0 reply
YesGuitarNubYes 281 Aug 14, 2009 09:59 AM

YES FINALLY A GOOD TAB FOR THE SOLO!!!!!

+1 reply
necriononguitar 2,912 Oct 27, 2009 10:49 AM

nah... its much better then the rest, but its stil wrong (its the way of playin it)

there r some octavenotes u missed and ur hammerin and pullin and sliding is a bit wrong, but lets see how itll get reated

0 reply
TheZoolans 31 Dec 26, 2009 12:02 PM

note right key

guest
You may want to rate the tab now too:
select rating
Wanna post a correction for this tab? Suggest correction