Oops, an error
Loading. Please wait.

Hell Song Tab

version 4
version 4

Whole song

15,378 views 45 this week
1 commentread comment
1 2 3 4 5
x 10
add to favorites
launch autoscroll
font size
0
reset
how to read this tab
guitar tuner
Autoscroll
slow
fast
+/-
esc
set tempo
stop
Help us to improve Ultimate-Guitar.com Take our survey!
×
Author
Difficulty
intermediate
Standard tuning.(EADGBe)
Pretty sure it is correct throughout.
By Luke Shaddock


e|---------------------------------------------------------------------------------------|
B|--9--9-9-9-9----9-9-9-9-9--------------------------------------------------------------|
G|-11^---------11^----------11-11-11-11-9-8-6-8h9p8p6h8p6p4h6p4p3-4-6-8-9-8--4-6-8-------|
D|---------------------------------------------------------------------------------------|
A|---------------------------------------------------------------------------------------|
E|---------------------------------------------------------------------------------------|

(the 11 are eleven not one)

e|---------------------------------------------------------------------------|
B|------------------------------------------9--11-11--12 12--14-14-----------|
G|-3h4p3(X4)-4h6p3(x4)-6h8p6(x4)-8h9p8(x4)-11^-13^13^-14^14^-16^16^----------|
D|---------------------------------------------------------------------------|
A|---------------------------------------------------------------------------|
E|---------------------------------------------------------------------------|


e|-----------------------------------------------------------12----------12-------------------|
B|-14^14-14-12-14p12----12-14-14^14-14-12-14p12----12-14-14^----14-12-14^---14-12-------------|
G|-------------------13-------------------------13--------------------------------------------|
D|--------------------------------------------------------------------------------------------|
A|--------------------------------------------------------------------------------------------|
E|--------------------------------------------------------------------------------------------|


e|---------------------------------------------5-------------------------------------|
B|-11-12-12------------------------------------5-(harmonics to get wierd sound)------|
G|---------11-13-11---------------------4------5-------------------------------------|
D|-----------------11-13-11-9-11-9-6----4-4-6----------------------------------------|
A|---------------------------------6----2-4-6----------------------------------------|
E|---------------------------------4------2-4----------------------------------------|



************************************

| h  Hammer-on
| p  Pull-off

************************************
Suggest correction
comments
print report bad tab
1 comment total.
0 reply
litelsk8erboi 10 Feb 12, 2011 02:20 AM

Mad solo goes well with hell song version 1

guest
You may want to rate the tab now too:
select rating
Wanna post a correction for this tab? Suggest correction