Oops, an error
Loading. Please wait.

Hell Song Tab

version 1
version 1

Whole song

Video

582,077 views 684 this week
103 commentsread comments
1 2 3 4 5
accurate
x 225
add to favorites
launch autoscroll
font size
0
reset
how to read this tab
guitar tuner
Autoscroll
slow
fast
+/-
esc
set tempo
stop
Help us to improve Ultimate-Guitar.com Take our survey!
×
This is , I think, the first track on the New album - Does this look infected. I
heard it on the Sum41 website, www.sum41.com and loved it. I recommend you hear
and learn this.

Mattius


[Intro]

Guitar 1
e|---------------------------------------------|
B|---------------------------------------------|
G|---------------------------------------------|
D|---------------------------------------2-1---|
A|-------4-6---------4-6--------4-6----------4-|
E|---4-7-----7---0-7-----7--7-7-----7--2-------|


[Intro]

  Guitar 2 (comes in after guitar 1 plays through
  once)Work out the strumming for yourself - its very
  easy
e|---------------------------------------------|
B|---------------------------------------------|
G|--------------------4------------------------|
D|-------6-----2------4----4-------------------|
A|-------6-----2------2----4-------------------|
E|-------4-----0-----------2-------------------|

 
[Verse]

palm muted
e|---------------------------------------------|
B|---------------------------------------------|
G|-----------------4---------------------------|
D|-----6------2----4----4----------------------|
A|-----6------2----2----4----------------------|
E|-----4------0---------2----------------------|


[Interlude]

with verse chords over top
e|---------------------------------------------|
B|---------------------------------------------|
G|---------------------------------------------|
D|---------------------------------------2-1---|
A|-------4-6---------4-6--------4-6----------4-|
E|---4-7-----7---0-7-----7--7-7-----7--2-------|


[Chorus]

(same as verse, different strum)
e|------------------------------------------------|
B|------------------------------------------------|
G|-----------------4------------------------------|
D|------6-----2----4----4-------------------------|
A|------6-----2----2----4-------------------------|
E|------4-----0---------2-------------------------|


[Solo]

its not perfect, but enough to give you a lead
e|-------------------------------------------------|
B|--9-9-9-7---9-9-9-7---7-7-7----------------------|
G|----------9---------9-------9-8-6-9h11p9-8h10p96-|
D|-------------------------------------------------|
A|-------------------------------------------------|
E|-------------------------------------------------|

e|------------------------------------------------|
B|----------7-9-7-----7---------------------------|
G|6h8p6-8-9-------9-8-----------------------------|
D|------------------------7h8p7h8p7h8p7h8p7h8p7h8-|
A|------------------------------------------------|
E|------------------------------------------------|

e|------------------------------------------------|
B|------------------------------------------------|
G|--9h10p9h10p9h10p9h10p9h10p9h10-10h11p10h11p10h-|
D|------------------------------------------------|
A|------------------------------------------------|
E|------------------------------------------------|

e|------------------------------------------------|
B|-----------------------7h8p7h8p7h8p7h8p7h8p7h8--|
G|--11p10h11p10h11p10h11--------------------------|
D|------------------------------------------------|
A|------------------------------------------------|
E|------------------------------------------------|

e|----------------------------------------------|
B|---9-9/11-11/12-12/14---16-16-p14-------------|
G|----------------------------------16p13-------|
D|----------------------------------------------|
A|----------------------------------------------|
E|----------------------------------------------|


e|-----------------------------------------------|
B|-16-16-p14-------16b18r16p14----16b18r16p14----|
G|-----------16p13-------------16-------------16-|
D|-----------------------------------------------|
A|-----------------------------------------------|
E|-----------------------------------------------|


e|---------------------------------------------|
B|-----------------------------------9-7-9-----|
G|--16-15-15-13-13----13-----------------------|
D|-----------------16----16-14-13--------------|
A|--------------------------------14-----------|
E|---------------------------------------------|

And thats it, have fun.



************************************

| h  Hammer-on
| p  Pull-off
| r  Release
| b  Bend
| /  Slide up

************************************
Suggest correction
comments
print report bad tab
103 comments total. Showing first comments.
+7 reply
charmed_magik 10 wrote on November 29 2002, 12:00 am

The song is called The Hell Song not Hell...just thought ya'd like to know

+1 reply
Mattius07071988 195 wrote on December 3 2002, 12:00 am

Hi - I wrote this tab, and I missed a bit. Its the bit during the last choruses. I think it starts at 2:39

---------------------------------------
---------------------------------------
---------------------------------------
-6-4-----------------------------------
------6-4------------------------------
-----------7-4-2-4---------------------

+6 reply
roumen 120 wrote on December 8 2002, 12:00 am

very nice tab
but i think the chorus should be:

e|-------------------------------------
B|-------------------------------------
G|----------9--9-9--4--4-4-------------
D|--6--6-6--9--9-9--4--4-4--4--4-4-----
A|--6--6-6--7--7-7--2--2-2--4--4-4-----
E|--4--4-4------------------2--2-2-----

this is an approach to the strumming used but im trying to say that E5 shoudl be the high one

guest
You may want to rate the tab now too:
select rating
Please do not post tabs as comments. Select "correction" instead!