Oops, an error
Loading. Please wait.

Hell Song Tab

version 10
version 10

Whole song

Video

2,371 views 1 this week
no commentswrite comment
1 2 3 4 5
please rate
add to favorites
launch autoscroll
font size
0
reset
how to read this tab
guitar tuner
Autoscroll
slow
fast
+/-
esc
set tempo
stop
Help us to improve Ultimate-Guitar.com Take our survey!
×
The Hell Song

Key: B

Tuning: Standard EADGBe


Chords used:
G#m - 466444
E -   022100 in Verses, 079900 in Chorus
B -   x24442
F# -  244322


Intro:

Dave:
       Abm            E             B              F#
e|-------------|-------------|-------------|-----------------|
B|-------------|-------------|-------------|-----------------|
G|-------------|-------------|-------------|-----------------|
D|--------1----|--------1----|--------1----|-----2-2-1-1-----| x3
A|----2-4----2-|----2-4----2-|-2--2-4----2-|-------------4-4-|
E|-4-----------|-0-----------|-------------|-2-2-------------|


Deryck: G#m--E--B--F#-- x2


Verse 1:
Abm
  Everybody's got
      E
their problems
B
  Everybody says
    B
the same thing to you
Abm
  It's just a matter
        E
how you solve them
B
  And knowing how
to change the
F#
things you've
been through
Abm           E
  I feel I've come
to realize
B               F#
  How fast life can
be compromised
Abm            E
  Step back to see
what's going on
B           F#
  I can't believe
                 Abm E B F#(Intro)
this happened to you
                 Abm E B F#
This happened to you


Verse 2:
Abm
  It's just a problem
         E
that I'm faced with
    B
Am I not the only one
    F#
who hates to stand by
Abm
  Complications that are
E
first in this line
B
  With all these pictures
        F#
running through my mind
Abm
  Knowing endless
E
  consequences
B           F#
  I feel so useless in
    Abm
this Get back step
E               B
back and as for me
          F#
I can't believe


Chorus:
        Abm        E
Part of me won't agree
              B
Cause I don't know
            F#
if it's for sure
      Abm      E
Suddenly suddenly
        B
I don't feel
       F#
so insecure
(Repeat)


Post Chorus
   Abm Abm Abm Abm
Anymore


Solo:

Deryck: G#m--E--B--F# x4


Dave:
     S S S S  E   S  S  S S S S  E   S S
e|----------------------------------------|
A|---L-9-9-9--9------9----9-9-9--9--------|
D|---L-------11s--8-11b-L-------11s--8-6s-|
G|----------------------------------------|
B|----------------------------------------|
E|----------------------------------------|

   S  S  S  S  S S S S S S T  T  S T  T  S T  T  T  T
------------------------------------------------------|
------------------------------------------------------|
--11--L-11-11-11-9-8-6-L-6-8h-9p-8-6h-8p-6-4h-6p-4s-3-|
------------------------------------------------------|
------------------------------------------------------|
------------------------------------------------------|

                                     tr      tr      tr      tr
  E   E   E   S  S S S E   E   E     Q       Q       Q       Q
----------------------------------|----------------------------------|
----------------------------------|----------------------------------|
--8---9--11--13-11-L-8-8---9--11--|--3(4)----4(6)----6(8)----8(9)----|
--9--11--13--14-13-L-9-9--11--13--|----------------------------------|
----------------------------------|----------------------------------|
----------------------------------|----------------------------------|

   E    S  S   E   S  S   E   S  S   S   S  S  S
--------------------------------------------------|
---9----L-11--11---L-12--12---L-14--16------------|
--11b---L-13b-13b--L-14b-14b--L-16b-16b-16-13-18b-|
-----------------------------------------------L--|
--------------------------------------------------|
--------------------------------------------------|

  S  S    S    S    T   T  S  S  S   E     E   S  S  S  S
--------------------------------------------------------------------------------|
--------------------------------------------------------------------------------|
--L-18pb-18pb-18pb-18p-16----16-18b-18br--16---L-18-16-18br---------------------|
--------------------------18----------------------------------------------------|
--------------------------------------------------------------------------------|
--------------------------------------------------------------------------------|

  S  S  S  S  E   S  S   S  S  S S  E   S   S
----------------------------------------------|
----19--L------------------19--L--------------|
--L--L--L--L-16--16-18br-L--L--L-L-16--16s-15-|
----------------------------------------------|
----------------------------------------------|
----------------------------------------------|

  S  S  S  S  S  S  S  S  S  S  S  S  S  S  E      W
-----------------------------------------------|--------------------|
-----------------------------------------------|--------------------|
--L-16-15--------------------------------------|--------------------|
----------16-18-16-----------------------------|--------------------|
-------------------16-18-16-14-16-14--L-16-14--|--14----------------|
-----------------------------------------------|--16----------------|

  B.            E   E      S. T E  E  EE  E  E  E
-----------------------|-----------------------------|
-----------------------|-----------------------------|
-----------------------|-----------------------------|
-----------------------|-----------------------------|
--L--------------------|-----------------------------|
--L------------16--14--|--16s-x----------------------|


Interlude: G#m(hold)---G#m-F#


Verse 3:
Abm
  Everybody's got
      E
their problems
B
  Everybody says
    F#
the same thing to you
Abm
  It's just a matter
        E
how you solve them
B
  But what else are
               F#(hold)
we supposed to do


(Repeat Chorus)


Outro
Abm      E
  Why do things that
           B
matter the most
      F#
Never end up
          Abm
being our choice
(Anymore)
           E
Now that I find out
            B
it ain't so bad
        F#
I don't think I
knew what I had
(Anymore)
(Repeat)


End on G#m
Suggest correction
Give kudos to tab author, rate the tab!
1 2 3 4 5
comments
print report bad tab
guest
You may want to rate the tab now too:
select rating
Wanna post a correction for this tab? Suggest correction