Oops, an error
Loading. Please wait.
We have an official Hell Song tab made by UG professional guitarists. Check out the tab »
×

Hell Song Tab

version 10
version 10

Whole song

Video

by Sum 41
217 views 1 this week
no commentswrite comment
1 2 3 4 5
2 more votes to show rating
add to favorites
launch autoscroll
font size
0
reset
how to read this tab
guitar tuner
Autoscroll
slow
fast
+/-
esc
set tempo
stop
Author
Difficulty
intermediate
-------------------------------------------------------------------------------
                             Hell Song - Sum 41
-------------------------------------------------------------------------------
Tabbed by: Buzzi1

I noticed that there are a lot of tabs of this song but no one is 100% correct. 
This is how I play it :) Hope you enjoy!

Tuning:
[Intro] Play the intro 3 times
e|---------------------------------------------------------------------------|
B|---------------------------------------------------------------------------|
G|---------------------------------------------------------------------------|
D|---------1-----------1-----------1-------22-11--------X3-------------------|
A|-----2-4---2-----2-4---2---2-2-4---2-----------44--------------------------|
E|---4-----------0-----------------------2-----------------------------------|
[Verse] Open notes have "o" under them
e|---------------------------------------------------------------------------|
B|---------------------------------------------------------------------------|
G|--------------------------------------4-4-4-4-4-4-4-4----------------------|
D|----6-6-6-6-6-6-6-6--2-2-2-2-2-2-2-2--4-4-4-4-4-4-4-4--4-4-4-4-4-4-4-4-----|
A|----6-6-6-6-6-6-6-6--2-2-2-2-2-2-2-2--2-2-2-2-2-2-2-2--4-4-4-4-4-4-4-4-----|
E|----4-4-4-4-4-4-4-4--0-0-0-0-0-0-0-0-------------------2-2-2-2-2-2-2-2-----|
   PM...................................................................
e|---------------------------------------------------------------------------|
B|---------------------------------------------------------------------------|
G|--------------------------------------4-4-4-4-4-4-4-4----------------------|
D|----6-6-6-6-6-6-6-6--2-2-2-2-2-2-2-2--4-4-4-4-4-4-4-4--4-4-4-4-4-4-4-4-----|
A|----6-6-6-6-6-6-6-6--2-2-2-2-2-2-2-2--2-2-2-2-2-2-2-2--4-4-4-4-4-4-4-4-----|
E|----4-4-4-4-4-4-4-4--0-0-0-0-0-0-0-0-------------------2-2-2-2-2-2-2-2-----|
   PM........................................................o.....o...o

e|---------------------------------------------------------------------------|
B|---------------------------------------------------------------------------|
G|--------------------------------------4-4-4-4-4-4-4-4----------------------|
D|----6-6-6-6-6-6-6-6--2-2-2-2-2-2-2-2--4-4-4-4-4-4-4-4--4-4-4-4-4-4-4-4-----|
A|----6-6-6-6-6-6-6-6--2-2-2-2-2-2-2-2--2-2-2-2-2-2-2-2--4-4-4-4-4-4-4-4-----|
E|----4-4-4-4-4-4-4-4--0-0-0-0-0-0-0-0-------------------2-2-2-2-2-2-2-2-----|
   PM.....o.....o..........o.....o..........o.....o..........o.....o...o
e|---------------------------------------------------------------------------|
B|---------------------------------------------------------------------------|
G|--------------------------------------4-4-4-4-4-4-4-4----------------------|
D|----6-6-6-6-6-6-6-6--2-2-2-2-2-2-2-2--4-4-4-4-4-4-4-4--4-4-4-4-4-4-4-4-----|
A|----6-6-6-6-6-6-6-6--2-2-2-2-2-2-2-2--2-2-2-2-2-2-2-2--4-4-4-4-4-4-4-4-----|
E|----4-4-4-4-4-4-4-4--0-0-0-0-0-0-0-0-------------------2-2-2-2-2-2-2-2-----|
   PM.....o.....o..........o.....o....

Same as Intro
e|---------------------------------------------------------------------------|
B|---------------------------------------------------------------------------|
G|---------------------------------------------------------------------------|
D|---------1-----------1-----------1-------22-11--------X2-------------------|
A|-----2-4---2-----2-4---2---2-2-4---2-----------44--------------------------|
E|---4-----------0-----------------------2-----------------------------------|

e|---------------------------------------------------------------------------|
B|---------------------------------------------------------------------------|
G|--------------------------------------4-4-4-4-4-4-4-4----------------------|
D|----6-6-6-6-6-6-6-6--2-2-2-2-2-2-2-2--4-4-4-4-4-4-4-4--4-4-4-4-4-4-4-4-----|
A|----6-6-6-6-6-6-6-6--2-2-2-2-2-2-2-2--2-2-2-2-2-2-2-2--4-4-4-4-4-4-4-4-----|
E|----4-4-4-4-4-4-4-4--0-0-0-0-0-0-0-0-------------------2-2-2-2-2-2-2-2-----|
   PM.....o.....o..........o.....o..........o.....o..........o.....o....   
e|---------------------------------------------------------------------------|
B|---------------------------------------------------------------------------|
G|--------------------------------------4-4-4-4-4-4-4-4----------------------|
D|----6-6-6-6-6-6-6-6--2-2-2-2-2-2-2-2--4-4-4-4-4-4-4-4--4-4-4-4-4-4-4-4-----|
A|----6-6-6-6-6-6-6-6--2-2-2-2-2-2-2-2--2-2-2-2-2-2-2-2--4-4-4-4-4-4-4-4-----|
E|----4-4-4-4-4-4-4-4--0-0-0-0-0-0-0-0-------------------2-2-2-2-2-2-2-2-----|
   PM.....o.....o..........o.....o..........o.....o..........o.....o...o
e|---------------------------------------------------------------------------|
B|---------------------------------------------------------------------------|
G|--------------------------------------4-4-4-4-4-4-4-4----------------------|
D|----6-6-6-6-6-6-6-6--2-2-2-2-2-2-2-2--4-4-4-4-4-4-4-4--4-4-4-4-4-4-4-4-----|
A|----6-6-6-6-6-6-6-6--2-2-2-2-2-2-2-2--2-2-2-2-2-2-2-2--4-4-4-4-4-4-4-4-----|
E|----4-4-4-4-4-4-4-4--0-0-0-0-0-0-0-0-------------------2-2-2-2-2-2-2-2-----|
   PM.....o.....o..........o.....o..........o.....o..........o.....o...o
e|---------------------------------------------------------------------------|
B|---------------------------------------------------------------------------|
G|--------------------------------------4-4-4-4-4-4-4-4----------------------|
D|----6-6-6-6-6-6-6-6--2-2-2-2-2-2-2-2--4-4-4-4-4-4-4-4--4-4-4-4-4-4-4-4-----|
A|----6-6-6-6-6-6-6-6--2-2-2-2-2-2-2-2--2-2-2-2-2-2-2-2--4-4-4-4-4-4-4-4-----|
E|----4-4-4-4-4-4-4-4--0-0-0-0-0-0-0-0-------------------2-2-2-2-2-2-2-2-----|
   PM.....o.....o..........o.....o....

Chorus 
e|---------------------------------------------------------------------------|
B|---------------------------------------------------------------------------|
G|-------------------9-9-9-9-9-9-9-9-----------------------------------------|
D|--6-6-6-6-6-6-6-6--9-9-9-9-9-9-9-9--9-9-9-9-9-9-9-9--4-4-4-4-4-4-4-4---X4--|
A|--6-6-6-6-6-6-6-6--7-7-7-7-7-7-7-7--9-9-9-9-9-9-9-9--4-4-4-4-4-4-4-4-------|
E|--4-4-4-4-4-4-4-4-------------------7-7-7-7-7-7-7-7--2-2-2-2-2-2-2-2-------|

e|---------------------------------------------------------------------------|
B|---------------------------------------------------------------------------|
G|---------------------------------------------------------------------------|
D|---66--66--66--66----------------------------------------------------------|
A|---66--66--66--66----------------------------------------------------------|
E|---44--44--44--44----------------------------------------------------------|


Solo
e|---------------------------------------------------------------------------|
B|--9-----9-----9--------------9-----9-----9---------------------------------|
G|--11b13-11b13-11b13br11-9----11b13-11b13-11b13br11-9--11-11-11-9-8-6-------|
D|---------------------------------------------------------------------------|
A|---------------------------------------------------------------------------|
E|---------------------------------------------------------------------------|


e|---------------------------------------------------------------------------|
B|---------------------------------------------------------------------------|
G|--6-8h9p8-6h8p6-4h6p4-4-6-8-9-8-4-6-8-3h4p3h4p3h4-4h6p4h6p4h6-6h8p6h8p6h8--|
D|---------------------------------------------------------------------------|
A|---------------------------------------------------------------------------|
E|---------------------------------------------------------------------------|

e|---------------------------------------------------------------------------|
B|---------------9------11----11-----12----12-----14-------------------------|
G|--8h9p8h9p8h9--11b13--13b15-13b15--14b16-14b16--16b18-16-13--18b20-18b20---|
D|---------------------------------------------------------------------------|
A|---------------------------------------------------------------------------|
E|---------------------------------------------------------------------------|

e|---------------------------------------------------------------------------|
B|------------------------------------------------19------------------19-----|
G|--18b20br18p16-18-18b20-18b20br18-16-18-16-18b20--20b18-16--16-18b20--20b18|
D|---------------------------------------------------------------------------|
A|---------------------------------------------------------------------------|
E|---------------------------------------------------------------------------|

e|---------------------------------------------------------------------------|
B|---------------------------------------------------------------------------|
G|---16--16-15-16-16-11-13-11-----------------------------13-11-13-----------|
D|----------------------------11-13-11-9-11-9-9-11-9-9~ --13-11-13-----------|
A|--------------------------------------------------------11-9--11-----------|
E|---------------------------------------------------------------------------|

Pre-Chorus
e|---------------------------------------------------------------------------|
B|---------------------------------------------------------------------------|
G|--------------------------------------4-4-4-4-4-4-4-4----------------------|
D|----6-6-6-6-6-6-6-6--2-2-2-2-2-2-2-2--4-4-4-4-4-4-4-4--4-4-4-4-4-4-4-4-----|
A|----6-6-6-6-6-6-6-6--2-2-2-2-2-2-2-2--2-2-2-2-2-2-2-2--4-4-4-4-4-4-4-4-----|
E|----4-4-4-4-4-4-4-4--0-0-0-0-0-0-0-0-------------------2-2-2-2-2-2-2-2-----|
   PM...................................................................
e|---------------------------------------------------------------------------|
B|---------------------------------------------------------------------------|
G|--------------------------------------4-4-4-4-4-4-4-4----------------------|
D|----6-6-6-6-6-6-6-6--2-2-2-2-2-2-2-2--4-4-4-4-4-4-4-4--4~ -----------------|
A|----6-6-6-6-6-6-6-6--2-2-2-2-2-2-2-2--2-2-2-2-2-2-2-2--4~ -----------------|
E|----4-4-4-4-4-4-4-4--0-0-0-0-0-0-0-0-------------------2~ -----------------|
   PM..................................................

Last Chorus
e|---------------------------------------------------------------------------|
B|---------------------------------------------------------------------------|
G|-------------------9-9-9-9-9-9-9-9-----------------------------------------|
D|--6-6-6-6-6-6-6-6--9-9-9-9-9-9-9-9--9-9-9-9-9-9-9-9--4-4-4-4-4-4-4-4---X4--|
A|--6-6-6-6-6-6-6-6--7-7-7-7-7-7-7-7--9-9-9-9-9-9-9-9--4-4-4-4-4-4-4-4-------|
E|--4-4-4-4-4-4-4-4-------------------7-7-7-7-7-7-7-7--2-2-2-2-2-2-2-2-------|

e|---------------------------------------------------------------------------|
B|---------------------------------------------------------------------------|
G|---------------------------------------------------------------------------|
D|---------1-----------1-----------1-------22-11--------X4--------6~---------|
A|-----2-4---2-----2-4---2---2-2-4---2-----------44---------------6~---------|
E|---4-----------0-----------------------2------------------------4~---------|



************************************

| /   slide up
| \   slide down
| h   hammer-on
| p   pull-off
| ~   vibrato
| +   harmonic
| x   Mute note
| b   Bend
| pb  Pre-bend
| br  Bend release
| pbr Pre-bend release
| brb Bend release bend

************************************
Suggest correction
Give kudos to tab author, rate the tab!
1 2 3 4 5
comments
print report bad tab
guest
You may want to rate the tab now too:
select rating
Wanna post a correction for this tab? Suggest correction