Oops, an error
Loading. Please wait.
585 views 3 this week
no commentswrite comment
1 2 3 4 5
2 more votes to show rating
add to favorites
×
Save as Personal and add changes to this tab that will be seen only by you. Learn more ›
×
You can save this tab as Personal to edit and correct it or add notes. All changes will be seen only by you. Learn more »
launch autoscroll
font size
0
reset
how to read this tab
guitar tuner
edit
Autoscroll
slow
fast
+/-
esc
set tempo
stop
-------------------------------------------------------------------------------
                                 The Hell Song - Sum 41
-------------------------------------------------------------------------------
Tabbed by: CatWithAMustach
E-mail:brentvanderpol@gmail.com

************************************
. - Palm Mutes
< - Accent Notes
/ - Slide Up
/ - Slide Down
pb - Prebend
b - Bend
h - Hammer-on
p - Pull-off
= - Hold the note over another
(x) - Legato Slide (Don’t strum the note, just slide your finger to it!)
************************************

Tuning: E Standard


Intro (0:00): (Lead Guitar - Distortion)
e|--------------------------------------------------|
B|--------------------------------------------------|
G|--------------------------------------------------|
D|--------1------------1---------1------2-2-1-1-----| x3
A|----2h4---2------2h4---2-2-2h4---2------------4-4-|
E|-4------------0--------------------2--------------|

(0:07): (Rhythm Guitar - Distortion)
e|---------------------------------------------------------------------|
B|---------------------------------------------------------------------|
G|---------------------------------------------------------------------|
D|---------------------------------------4--4-4-4-4-4-4----------------| x2
A|-x-x-x-x-6--6-6-6-6-6-6-2--2-2-2-2-2-2-2--2-2-2-2-2-2-4--4-4-4-4-4-4-|
E|-x-x-x-x-4--4-4-4-4-4-4-0--0-0-0-0-0-0----------------2--2-2-2-2-2-2-|

Verse (0:18): (Lead Guitar - Distortion)
e|-----------------------------------------------------------------|
B|-----------------------------------------------------------------|
G|-----------------------------------------------------------------|
D|---------------------------------4-4-4-4-4-4-4-4-----------------|
A|-2---6-6-6-6-6-6-2-2-2-2-2-2-2-2-2-2-2-2-2-2-2-2-4-4-4-4-4-4-4-4-|
E|---4-4-4-4-4-4-4-0-0-0-0-0-0-0-0-----------------2-2-2-2-2-2-2-2-|
       . . . . . . . . . . . . . . . . . . . . . . . . . . . . . . 
e|-----------------------------------------------------------------|
B|-----------------------------------------------------------------|
G|-----------------------------------------------------------------|
D|---------------------------------4-4-4-4-4-4-4-4-----------------|
A|-6-6-6-6-6-6-6-6-2-2-2-2-2-2-2-2-2-2-2-2-2-2-2-2-4-4-4-4-4-4-4-4-|
E|-4-4-4-4-4-4-4-4-0-0-0-0-0-0-0-0-----------------2-2-2-2-2-2-2-2-|
   . . . . . . . . . . . . . . . . . . . . . . . . . . < . . < . <  - These accents are
                                                                                   not palm muted
(Rhythm Guitar - Distortion)
e|-----------------------------------------------------------------|
B|-----------------------------------------------------------------|
G|-----------------------------------------------------------------|
D|---------------------------------4-4-4-4-4-4-4-4-----------------|
A|-6-6-6-6-6-6-6-6-2-2-2-2-2-2-2-2-2-2-2-2-2-2-2-2-4-4-4-4-4-4-4-4-|
E|-4-4-4-4-4-4-4-4-0-0-0-0-0-0-0-0-----------------2-2-2-2-2-2-2-2-|
   . . . . . . . . . . . . . . . . . . . . . . . . . . . . . . . .
e|-----------------------------------------------------------------|
B|-----------------------------------------------------------------|
G|-----------------------------------------------------------------|
D|---------------------------------4-4-4-4-4-4-4-4-----------------|
A|-6-6-6-6-6-6-6-6-2-2-2-2-2-2-2-2-2-2-2-2-2-2-2-2-4-4-4-4-4-4-4-4-|
E|-4-4-4-4-4-4-4-4-0-0-0-0-0-0-0-0-----------------2-2-2-2-2-2-2-2-|
   . . . . . . . . . . . . . . . . . . . . . . . . . . < . . < . < 

(0:30): (Lead Guitar AND Rhythm Guitar - Distortion)
e|-----------------------------------------------------------------|
B|-----------------------------------------------------------------|
G|-----------------------------------------------------------------|
D|---------------------------------4-4-4-4-4-4-4-4-----------------|
A|-6-6-6-6-6-6-6-6-2-2-2-2-2-2-2-2-2-2-2-2-2-2-2-2-4-4-4-4-4-4-4-4-|
E|-4-4-4-4-4-4-4-4-0-0-0-0-0-0-0-0-----------------2-2-2-2-2-2-2-2-|
   . . < . . . < . . . < . . . < . . . < . . . < . . . < . . < . < 

e|-----------------------------------------------------------------------|
B|-----------------------------------------------------------------------|
G|-----------------------------------------------------------------------|
D|---------------------------------4-4-4-4-4-4-4-4-----------------------|
A|-6-6-6-6-6-6-6-6-2-2-2-2-2-2-2-2-2-2-2-2-2-2-2-2-4-4-4-4-4-4-4---------|
E|-4-4-4-4-4-4-4-4-0-0-0-0-0-0-0-0-----------------2-2-2-2-2-2-2-2/(12)\-|
   . . < . . . < . . . < . . . < . 

Post-verse (0:40): (Lead Guitar - Distortion)
e|--------------------------------------------------|
B|--------------------------------------------------|
G|--------------------------------------------------|
D|--------1------------1---------1------2-2-1-1-----| x2
A|----2h4---2------2h4---2-2-2h4---2------------4-4-|
E|-4------------0--------------------2--------------|

(Rhythm Guitar - Distortion)
e|-------------------------------------------------------------|
B|-------------------------------------------------------------|
G|-------------------------------------------------------------|
D|-------------------------------4--4-4-4-4-4-4----------------| x2
A|-6--6-6-6-6-6-6-2--2-2-2-2-2-2-2--2-2-2-2-2-2-4--4-4-4-4-4-4-|
E|-4--4-4-4-4-4-4-0--0-0-0-0-0-0----------------2--2-2-2-2-2-2-|

Verse (0:52): (Lead Guitar - Distortion)
e|-----------------------------------------------------------------|
B|-----------------------------------------------------------------|
G|-----------------------------------------------------------------|
D|---------------------------------4-4-4-4-4-4-4-4-----------------|
A|-2---6-6-6-6-6-6-2-2-2-2-2-2-2-2-2-2-2-2-2-2-2-2-4-4-4-4-4-4-4-4-|
E|---4-4-4-4-4-4-4-0-0-0-0-0-0-0-0-----------------2-2-2-2-2-2-2-2-|
       < . . . < . . . < . . . < . . . < . . . < . . . < . . < . <
e|-----------------------------------------------------------------|
B|-----------------------------------------------------------------|
G|-----------------------------------------------------------------|
D|---------------------------------4-4-4-4-4-4-4-4-----------------|
A|-6-6-6-6-6-6-6-6-2-2-2-2-2-2-2-2-2-2-2-2-2-2-2-2-4-4-4-4-4-4-4-4-|
E|-4-4-4-4-4-4-4-4-0-0-0-0-0-0-0-0-----------------2-2-2-2-2-2-2-2-|
   . . < . . . < . . . < . . . < . . . < . . . < . . . < . . < . <  

(Rhythm Guitar - Distortion)
e|-----------------------------------------------------------------|
B|-----------------------------------------------------------------|
G|-----------------------------------------------------------------|
D|---------------------------------4-4-4-4-4-4-4-4-----------------|
A|-6-6-6-6-6-6-6-6-2-2-2-2-2-2-2-2-2-2-2-2-2-2-2-2-4-4-4-4-4-4-4-4-|
E|-4-4-4-4-4-4-4-4-0-0-0-0-0-0-0-0-----------------2-2-2-2-2-2-2-2-|
   . . < . . . < . . . < . . . < . . . < . . . < . . . < . . < . .
e|-----------------------------------------------------------------|
B|-----------------------------------------------------------------|
G|-----------------------------------------------------------------|
D|---------------------------------4-4-4-4-4-4-4-4-----------------|
A|-6-6-6-6-6-6-6-6-2-2-2-2-2-2-2-2-2-2-2-2-2-2-2-2-4-4-4-4-4-4-4-4-|
E|-4-4-4-4-4-4-4-4-0-0-0-0-0-0-0-0-----------------2-2-2-2-2-2-2-2-|
   . . < . . . < . . . < . . . < . . . < . . . < . . . < . . < . < 

(0:58): (Lead Guitar AND Rhythm Guitar - Distortion)
e|-----------------------------------------------------------------|
B|-----------------------------------------------------------------|
G|-----------------------------------------------------------------|
D|---------------------------------4-4-4-4-4-4-4-4-----------------| x2 
A|-6-6-6-6-6-6-6-6-2-2-2-2-2-2-2-2-2-2-2-2-2-2-2-2-4-4-4-4-4-4-4-4-|
E|-4-4-4-4-4-4-4-4-0-0-0-0-0-0-0-0-----------------2-2-2-2-2-2-2-2-|
   . . < . . . < . . . < . . . < . . . < . . . < . . . < . . < . < 

e|---------------------------------------------------------------|
B|---------------------------------------------------------------|
G|---------------------------------------------------------------|
D|---------------------------------4-4-4-4-4-4-4-4---------------|
A|-6-6-6-6-6-6-6-6-2-2-2-2-2-2-2-2-2-2-2-2-2-2-2-2-4-4-4-4-6--4--|
E|-4-4-4-4-4-4-4-4-0-0-0-0-0-0-0-0-----------------2-2-2-2-4--2--|
   . . < . . . < . . . < . . . < .                         <    

Chorus (1:14): (Lead Guitar AND Rhythm Guitar - Distortion)
e|-------------------------------------------------------------------|
B|-------------------------------------------------------------------|
G|-------------------------------------------------------------------|
D|----------------9--9-9-9-9-9-9--4--4-4-4-4-4-4-4-------------------| x3
A|-6--6-6-6-6-6-6-7--7-7-7-7-7-7--2--2-2-2-2-2-2-2-4--4-4-4-4-6-6-4--|
E|-4--4-4-4-4-4-4----------------------------------2--2-2-2-2-4-4-2--|
   <              <               <                <              
e|--------------------------------------------------------------------|
B|--------------------------------------------------------------------|
G|--------------------------------------------------------------------|
D|----------------9--9-9-9-9-9-9--4--4-4-4-4-4-4-4--------------------| 
A|-6--6-6-6-6-6-6-7--7-7-7-7-7-7--2--2-2-2-2-2-2-2-4--4-4-4-4-6-6-4-4-|
E|-4--4-4-4-4-4-4----------------------------------2--2-2-2-2-4-4-2-2-|
   <              <               <                < 
e|----------------------|
B|----------------------|
G|----------------------|
D|----------------------| 
A|-6-6--6-6--6-6--6\-x--|
E|-4-4--4-4--4-4--4\-x--|

Solo (1:39): (Lead Guitar - Lead)
e|-----------------------------------------------------------------------------|
B|-9-----9----9----9\-------9-----9----9----9----9\----------------------------|
G|-11b---11pb-11pb-11pb\----11b---11pb-11pb-11pb-11pb\--4/(11)-11-11-11-9-8-6--|
D|-----------------------------------------------------------------------------|
A|-----------------------------------------------------------------------------|
E|-----------------------------------------------------------------------------|

e|----------------------------------------------|
B|----------------------------------------------|
G|-6--8h9\-6h8\-4h6\-3-4--6--8--9-8\--4--6---9\-|
D|----------------------------------------------|
A|----------------------------------------------|
E|----------------------------------------------|

e|-------------------------------------------------------|
B|-------------------------------------------------------|
G|-3h4p3h4p3h4p3h4-4h6p4h6p4h6\-6h8p6h8p6h8-8h9p8h9p8h9\-|
D|-------------------------------------------------------|
A|-------------------------------------------------------|
E|-------------------------------------------------------|

e|-----------------------------------------------------------------------------|
B|-9-----11----12-------------14b-14pb-14pb-14pb-14p12----12-14b-14b-12-14-12--|
G|-11b---13b---14b---16b---13--------------------------14----------------------|
D|-----------------------------------------------------------------------------|
A|-----------------------------------------------------------------------------|
E|-----------------------------------------------------------------------------|

e|-----14-----------------14------------------|
B|-14b====14pb-12--12-14b====14pb-12--12\(11)-|
G|--------------------------------------------|
D|--------------------------------------------|
A|--------------------------------------------|
E|--------------------------------------------|

e|----------------------------------------------------------------------------|
B|-11h12-11h12----------------------------------------------------------------|
G|-------------11h13p11-------------------------------------------------------|
D|----------------------11h13p11-9h11p9-9h11p9-9---------------6-----4----6\--|
A|----------------------------------------------------------------------------|
E|----------------------------------------------------------------------------|

(Rhythm Guitar - Distortion)
e|------------------------------------------------------------------|
B|------------------------------------------------------------------|
G|------------------------------------------------------------------|
D|-------------------------------4-4-4-4-4-4-4-4--------------------|
A|-6--6-6-6-6-6-6-2--2-2-2-2-2-2-2-2-2-2-2-2-2-2-4--4-4-4-4-4-4-4-4-|
E|-4--4-4-4-4-4-4-0--0-0-0-0-0-0-----------------2--2-2-2-2-2-2-2-2-|
                  <                              <
e|--------------------------------------------------------------|
B|--------------------------------------------------------------|
G|--------------------------------------------------------------|
D|------------------------------4-4-4-4-4-4-4-4-----------------|
A|-6--6--6-6-x-2---2-2--2-2-2-2-2-2-2-2-2-2-2-2-4-4-4-4-4-4-4-4-|
E|-4--4--4-4-x-0---0-0--0-0-0-0-----------------2-2-2-2-2-2-2-2-|

e|---------------------------------------------------------------|
B|---------------------------------------------------------------|
G|---------------------------------------------------------------|
D|--------------9-9--x-----------4-4-4-4-4-4-4-x-----------------|
A|-6---x-6-6--x-7-7--x-2-2-2-2-2-2-2-2-2-2-2-2-x-4--4-4-4--4-4-4-|
E|-4---x-4-4--x--------0-0-0-0-0-----------------2--2-2-2--2-2-2-|
   <       <      <                              <  <   <
e|--------------------------------------------------------------------------------------|
B|--------------------------------------------------------------------------------------|
G|--------------------------------------------------------------------------------------|
D|----------------------------------4--4-4-4-4-4-4--------------------------------------|
A|-6---6---6-6-6-6-2---2-2--2---2-2-2--2-2-2-2-2-2-4-4-4-4-4-4-4-4-6-----6----4----6\---|
E|-4---4---4-4-4-4-0---0-0--0---0-0----------------2-2-2-2-2-2-2-2-4-----4----2----4\---|
                   <

Pre-Chorus (2:07): (Lead Guitar AND Rhythm Guitar - Distortion)
e|---------------------------------------------------------|
B|---------------------------------------------------------|
G|---------------------------------------------------------|
D|-------------------------4-4-4-4-4-4-4-4-----------------|
A|-6-6-6-6-2-2-2-2-2-2-2-2-2-2-2-2-2-2-2-2-4-4-4-4-4-4-4-4-|
E|-4-4-4-4-0-0-0-0-0-0-0-0-----------------2-2-2-2-2-2-2-2-|
   . . . . . . . . . . . . . . . . . . . . . . . . . . < .
e|---------------------------------------------------------------------|
B|---------------------------------------------------------------------|
G|---------------------------------------------------------------------|
D|---------------------------------4-4-4-4-4-4-4-4---------------------|
A|-6-6-6-6-6-6-6-6-2-2-2-2-2-2-2-2-2-2-2-2-2-2-2-2-4-------------6-6-4-|
E|-4-4-4-4-4-4-4-4-0-0-0-0-0-0-0-0-----------------2-------------4-4-2-|
   . . . . . . . . . . . . . . . . . . . . . . . . 

 Chorus (2:20): (Lead Guitar AND Rhythm Guitar - Distortion)
e|---------------------------------------------------------------|
B|---------------------------------------------------------------|
G|---------------------------------------------------------------|
D|----------------9--9-9-9-9-9-9--4--4-4-4-4-4-4-4-4-2-1---------| x4
A|-6--6-6-6-6-6-6-7--7-7-7-7-7-7--2--2-2-2-2-2-2-2-------4-2-1---|
E|-4--4-4-4-4-4-4----------------------------------------------2-|
   <              <               <                              

Outro (2:42): (Lead Guitar - Distortion)
e|--------------------------------------------------|
B|--------------------------------------------------|
G|--------------------------------------------------|
D|--------1------------1---------1------2-2-1-1-----| x4
A|----2h4---2------2h4---2-2-2h4---2------------4-4-|
E|-4------------0--------------------2--------------|
   |_ After the fourth repeat, the song ends on this note.

(Rhythm Guitar - Distortion)
e|-------------------------------------------------------------|
B|-------------------------------------------------------------|
G|-------------------------------------------------------------|
D|-------------------------------4--4-4-4-4-4-4----------------| x4
A|-6--6-6-6-6-6-6-2--2-2-2-2-2-2-2--2-2-2-2-2-2-4--4-4-4-4-4-4-|
E|-4--4-4-4-4-4-4-0--0-0-0-0-0-0----------------2--2-2-2-2-2-2-|
   |_ After the fourth repeat, the song ends on this chord.

            
            
Suggest correction
Creating personal tab
Creating personal tab
You can edit any tab online and save it as your Personal.

You can edit, replace or remove any tab part or add personal notes – all changes will be seen only by you.

Personal tabs can be accessed anytime from any device, even offline.
Learn more »
Give kudos to tab author, rate the tab!
1 2 3 4 5
comments
print report bad tab
guest
You may want to rate the tab now too:
select rating
Wanna post a correction for this tab? Suggest correction