Oops, an error
Loading. Please wait.

Hell Song Tab

version 4
version 4

Whole song

Video

69,569 views 9 this week
11 commentsread comments
1 2 3 4 5
worth learning
x 9
add to favorites
launch autoscroll
font size
0
reset
how to read this tab
guitar tuner
Autoscroll
slow
fast
+/-
esc
set tempo
stop
Help us to improve Ultimate-Guitar.com Take our survey!
×
Artist: Sum 41
Song: The hell song
Album: does this look infected?
Tabbed by: Nick Allan
Email: ERG121_406@hotmail.com

This song is the first non single song that has been tabbed that i have found
on Sum 41's new album. This song is the first on the album and one of the best.
This tab is 100% correct apart from some parts in the lead but loads of distortion 
should sort that out.

any suggestions or corrects email me.

Drop D tuning.

intro Guitar 2 dist.

listen to cd for amount of times played.

E ---------------------------------------------------
B ---------------------------------------------------
G --------------------------------------------------- repeat 
D --------1------------1------------1----------------
A ---2--4---2-----2--4---2---2-2--4---2----77-66-44--
D -6------------2------------------------4-----------

intro guitar 1 dist. (comes in the second time guitar 2 plays his intro)

listen to cd for amount of times played and rhythm.

E ------------------------
B ------------------------
G ------4-----------------
D 6--2--4--4--------------
A 6--2--2--4--------------
D 6--2-----4--------------


Verse 1 Guitar and 2 dist.

listen to cd for rhythm.

   PM
E ------------                                                   
B ------------
G ------------             
D ------4----- Times 2    
A 6--2--2--4--
D 6--2-----4--

Then

pm but play the higher part of the chord open when you get to it.
E -------------------------
B -------------------------
G ------------------4------              
D ----6-----2-------4----4-  
A ----6-----2---2-2------4-
D 6-6---2-2----------4-4---



INTRO AGAIN


Verse 2 guitars 1 and 2

pm but play the higher part of the chord open when you get to it.
E -------------------------
B -------------------------
G ------------------4------              
D ----6-----2-------4----4-  
A ----6-----2---2-2------4-
D 6-6---2-2----------4-4---


chorus

E -------------------                                                   
B -------------------
G -------------4-----             
D 6-4---6---2--4--4-- Times 2 (i think)    
A 6-4---6---2--2--4--
D 6-4---6---2-----4--


breakdown

E ------
B ------
G ------
D -6-6-- 2 times
A -6-6--
D -6-6--


lead solo, i think this is right. Guitar 2 dist

E -----------------------------------------
B -7~999999--7~999999----------------------
G -----------------------------------------
D -----------------------------------------
A -----------------------------------------
D -----------------------------------------

E -----------------------------------------
B -4h5-2-2h4-0-0h2----24542524-24----------
G -----------------3-4--------4------------
D -----------------------------------------
A -----------------------------------------
D -----------------------------------------

E ------------------------------------------------------
B -------------2h4p2h4p2h4-4h5p4h5p4h5-5h7p5h7p5h7------
G -3h4p3h4p3h4------------------------------------------
D ------------------------------------------------------
A ------------------------------------------------------
D ------------------------------------------------------

E -4-66-77-997--11-11-11-11-11p9-----9-11-11b---9-------
B -4-66-77-997-7-----------------12-9---------12-12-----
G ------------------------------------------------------
D ------------------------------------------------------
A ------------------------------------------------------
D ------------------------------------------------------

E -11-14-11---------11-14-11---------------------------------
B ----14---14-12-14----14---14-12-12-11-11-12----------------
G --------------------------------------------11h13p11-13-11-
D -----------------------------------------------------------
A -----------------------------------------------------------
D -----------------------------------------------------------

E -----------------------------
B -----------------------------
G -----------------------------
D -11h13p11-9h11p9-9h11-9-9~---
A -----------------------------
D -----------------------------


After lead

E --------------
B --------------
G --------------
D 6------6--4--6~
A 6-HOLD-6--4--6~
D 6------6--4--6~


pm
E ------------                                                   
B ------------
G ------4-----             
D 6--2--4--4-- 2 times ( i think)    
A 6--2--2--4--
D 6--2-----4--





in the outro guitar 1 and 2 go back to the chorus.

chorus

E -------------------                                                   
B -------------------
G -------------5-----             
D 6-4----6--3--5--5-- 2 TIMES ( i think)    
A 6-4----6--3--3--5--
D 6-4----6--3-----5--


extra guitar that goes with the end chorus
guitar 2 dist.
E -----------
B -----------
G -----------
D -----------
A -11-9-8-6-4
D -----------


INTRO PLAYED AGAIN TO THE END OF THE SONG.
Suggest correction new What's this?
You can suggest a correction to this tab. Community and Mods will review your correction and vote to approve or reject it.
comments
print report bad tab
11 comments total. Showing first comments.
0 reply
skidzz 59 wrote on December 5 2002, 12:00 am

Hey man, killer tab! Looks the same as how I play it. I prefer drop-D instead of standard, that way you don't have to bother shutting up an open and ringing E string all the time. Anyway, you left all out but the little riff near the end during the chorus. Here it is for you, and for all reading this:

P = Pinky
F = F**k finger
I = Index Finger
3 = Ring/Third finger

E----------------------------------------
B----------------------------------------
G----------------------------------------
D--4--2--1--------------6----------------
A-----------4--2--1-----6----------------
D--------------------4--6----------------
P F I P F I I 3

0 reply
roumen 391 wrote on December 8 2002, 12:00 am

very nice tab
but i think the chorus should be:

e|-------------------------------------
B|-------------------------------------
G|-----------9--9-9--4--4-4------------
D|--6--6-6--9--9-9--4--4-4--4--4-4-----
A|--6--6-6--7--7-7--2--2-2--4--4-4-----
E|--4--4-4------------------2--2-2-----

this is an approach to the strumming used but im trying to say that E5 shoudl be the high one

0 reply
skidzz 59 wrote on December 14 2002, 12:00 am

I agree with the last comment. I listened to it on "Karoeke mode" or whatever and it is an octive higher E. Try pulling out your headphones until they are barely in. You can cut out vocals and bass, as well as a lot of the drums and all you get is the guitar. This is what I do when I study music. :)

guest
You may want to rate the tab now too:
select rating
Please do not post tabs as comments. Select "correction" instead!