Oops, an error
Loading. Please wait.

Hell Song Tab

4,405 views 1 this week
14 commentsread comments
1 2 3 4 5
worth learning
x 10
add to favorites
launch autoscroll
font size
0
reset
how to read this tab
guitar tuner
Tab Pro tools
  • play this tab
  • loop segment
  • change instrument
  • show fretboard
  • metronome
×
Best way to learn
"Hell Song"
Autoscroll
slow
fast
+/-
esc
set tempo
stop
Contributor
Artist : Sum 41
Album : Does This Look Infected
Track : The Hell Song

All Gtrs Tune down half a step

Eb Ab Db Gb Bb eb

Gtr 1
eb|------------------------------------------------------------------|
Bb|------------------------------------------------------------------|
Gb|------------------------------------------------------------------|
Db|-----------2--------------2---------------2--------2-2------------|
Ab|--0--3--5-----3-----3--5-----3---3--3--5-----3---------5-5--------|
Eb|-----------------1------------------------------3-----------------|

Gtr 2
eb|---------------------------------------------------------------------|
Bb|---------------------------------------------------------------------|
Gb|---------------------------------------------------------------------|
Db|--2-2-2-2-2-2-2-2-------------------5-5-5-5-5-5-5-5------------------|
Ab|--0-0-0-0-0-0-0-0--3-3-3-3-3-3-3-3--3-3-3-3-3-3-3-3--5-5-5-5-5-5-5-5-|
Eb|-------------------1-1-1-1-1-1-1-1-------------------3-3-3-3-3-3-3-3-|

Verse
Gtr 1&2 
    p.m----------------------------------------------------------------|
eb|---------------------------------------------------------------------|
Bb|---------------------------------------------------------------------|
Gb|---------------------------------------------------------------------|
Db|--2-2-2-2-2-2-2-2-------------------5-5-5-5-5-5-5-5------------------|
Ab|--0-0-0-0-0-0-0-0--3-3-3-3-3-3-3-3--3-3-3-3-3-3-3-3--5-5-5-5-5-5-5-5-|
Eb|-------------------1-1-1-1-1-1-1-1-------------------3-3-3-3-3-3-3-3-|


Gtr 1
eb|------------------------------------------------------------------|
Bb|------------------------------------------------------------------|
Gb|------------------------------------------------------------------|
Db|-----------2--------------2---------------2--------2-2------------|
Ab|--0--3--5-----3-----3--5-----3---3--3--5-----3---------5-5--------|
Eb|-----------------1------------------------------3-----------------|

Gtr 2
eb|---------------------------------------------------------------------|
Bb|---------------------------------------------------------------------|
Gb|---------------------------------------------------------------------|
Db|--2-2-2-2-2-2-2-2-------------------5-5-5-5-5-5-5-5------------------|
Ab|--0-0-0-0-0-0-0-0--3-3-3-3-3-3-3-3--3-3-3-3-3-3-3-3--5-5-5-5-5-5-5-5-|
Eb|-------------------1-1-1-1-1-1-1-1-------------------3-3-3-3-3-3-3-3-|

Verse
Gtr 1&2 
    p.m----------------------------------------------------------------|
eb|---------------------------------------------------------------------|
Bb|---------------------------------------------------------------------|
Gb|---------------------------------------------------------------------|
Db|--2-2-2-2-2-2-2-2-------------------5-5-5-5-5-5-5-5------------------|
Ab|--0-0-0-0-0-0-0-0--3-3-3-3-3-3-3-3--3-3-3-3-3-3-3-3--5-5-5-5-5-5-5-5-|
Eb|-------------------1-1-1-1-1-1-1-1-------------------3-3-3-3-3-3-3-3-|

Chorus
Gtrs 1&2
eb|------------------------------------------------------------------|
Bb|------------------------------------------------------------------|
Gb|---------------------10-10-10-10-10-10----------------------------|
Db|-2-2-x-2-2-2-2-2-x-x-10-10-10-10-10-10--5-5-5-5-------------------|
Ab|-0-0-x-0-0-0-0-0-x-x--8--8--8--8--8--8--3-3-3-3--5-5-5-5----------|
Eb|-------------------------------------------------3-3-3-3----------|



Solo 
Gtr 1     hold bend.................................
eb|-----------------------------------------------------------------------------|
Bb|--10-------10---10--10--10--x--10--10--10--10--/-----------------------------|
Gb|--12b-(14)-12b--12b-12b-12b-x--12b-12b-12b-12b/--\12--12--12--10--9----------|
Db|---------------------------------------------------------------------12------|
Ab|-----------------------------------------------------------------------------|
Eb|-----------------------------------------------------------------------------|

eb|-------------------------------------------------------------------------------|
Bb|--------------------------------------------10---------------------------------|
Gb|---------------------------------9--10--12------12--10--9------12--------------|
Db|--12h14p12-/--10h12p10-/-9h10p9----------------------------12-------9h10-9h10--|
Ab|-------------------------------------------------------------------------------|
Eb|-------------------------------------------------------------------------------|

eb|----------------------------------------------------------------------------------|
Bb|----------------------------------------------------------------------------------|
Gb|------------------------------------9h10-9h10-9h10-9h10--10h12-10h12-10h12-10h12--|
Db|-9h10-9h10--10h12-10h12-10h12-10h12-----------------------------------------------|
Ab|----------------------------------------------------------------------------------|
Eb|----------------------------------------------------------------------------------|

eb|-------------------9--x-x--12-------------------------------------------------------|
Bb|-10--x-x--12--x-x-12b-x-x--15b-13~--15b-(17)-15b-15b-p13-----15--15b-r--15b-r--13~--|
Gb|-12b-x-x--14b-x-x----------------------------------------14-------------------------|
Db|------------------------------------------------------------------------------------|
Ab|------------------------------------------------------------------------------------|
Eb|------------------------------------------------------------------------------------|

eb|----------------15--------------------15----------------------------------------------------|
Bb|---15--13--15b-----15br-13~--15--15b------15br--13~/---12--13--13--12h13p12-----------------|
Gb|----------------------------------------------------------------------------14--12--14--12--|
Db|--------------------------------------------------------------------------------------------|
Ab|--------------------------------------------------------------------------------------------|
Eb|--------------------------------------------------------------------------------------------|

eb|---------------------------------------------------------------------------|
Bb|---------------------------------------------------------------------------|
Gb|---------------------------------------------------------------------------|
Db|--14--12--14--12--14--12--14--12--14---------------------------------------|
Ab|--------------------------------------15~~~~~~~~~--7---5--7--/-------------|
Eb|---------------------------------------------------5---3--5-/---x-x--------| 

Chorus
Gtr 2
eb|--------------------------------------------------------------------------|
Bb|--------------------------------------------------------------------------|
Gb|----------------------10-10-10-10-10-10-----------------------------------|
Db|--2-2-X-2-2-2-2-2-2-X-10-10-10-10-10-10-5--5--5--5--5--3--2--0------------|
Ab|--0-0-X-0-0-0-0-0-0-X--8--8--8--8--8--8-3--3--3--3--------------5--3--2---|
Eb|--------------------------------------------------------------------------|
comments
print report bad tab
14 comments total. Showing first comments.
0 reply
seiferalmasy10 wrote on December 3 2002, 12:00 am

This tab is really great - it's the first accurate on that i've found! from Crash avictaylor@hotmail.com

0 reply
Mark Brown wrote on December 4 2002, 12:00 am

Thanx 4 the reply!! This tab was done by me but it hasnt cum up with my name caus i got deleted wen the site wen done, just to let u no, there will b more sum tabs soon

0 reply
Mark Brown wrote on December 4 2002, 12:00 am

sorry i made a little mistake on the intro, the end bit is on the lower strings

I want to post or [tab]
guest
You may want to rate the tab now too:
select rating
Please do not post tabs as comments. Select "correction" instead!