Oops, an error
Loading. Please wait.
We have an official Hell Song tab made by UG professional guitarists. Check out the tab »
×

Hell Song Acoustic chords

version 6
version 6

Whole song

  • Follows exactly what the band played it when they showed an acoustic version.
  • This acoustic version was played by Sum 41 a few m... Show more

Video

by Sum 41
1,714 views 21 this week
1 commentread comment
1 2 3 4 5
1 last vote to show rating
add to favorites
×
Save as Personal and add changes to this tab that will be seen only by you. Learn more ›
×
You can save this tab as Personal to edit and correct it or add notes. All changes will be seen only by you. Learn more »
launch autoscroll
font size
0
reset
transpose
0
reset
simplify chords
display chords
guitar tuner
edit
Autoscroll
slow
fast
+/-
esc
set tempo
stop
About this tab version
This acoustic version was played by Sum 41 a few months ago in Rolling Stone youtube channel. Was this info helpful? Yes No
Strumming
There is no strumming pattern for this song yet. and get +5 IQ
It's a new version, based on this video: https://www.youtube.com/watch?v=PosyOdVwjnA
Hope you enjoy :D

P.s.: Tom's Guitar have Capo on 1st fret. Dave's guitar don't 
N.C
Am:   x02210
F7M:  xx3210
C:    x32010
C/B:  x20010

[Intro]

Dave:  e|---------------------------------------------|
       B|---------------------------------------------|
       G|---------------------------------------------|
       D|-------------3-------------------------------|
       A|-------4-6------4----------------------------|
       E|---6---------------2-------------------------|
 
Tom:   e|---------------------------------------------|
       B|---------------------------------------------|
       G|---------------------------------------------|
       D|----------2----------------------------------|
       A|---3-3-5-----3-------------------------------|
       E|----------------3----------------------------|

[Verse 1]
 Am                       F7M     C                   C/B
  Everybody's got their problems  Everybody says the same things to you
 Am                            F7M
  It's just a matter of how you solve them
 C                              C/B
  And knowing how to change the things you've been through
 Am             F7M             C             C/B      
  I feel I've come to realize how fast life can be compromised
 Am              F7M                C         C/B               
  Step back to see what's going on I can't believe this happened to you (this happened to you)

 Am F7M C C/B 
(Riff 1)

[Verse 2]
Am                                F7M
 It's just a problem that we're faced with am I 
C                      C/B
 not the only one who hates to stand by
Am                     F7M
 Complications ended first in this line 
C                                C/B
 with all this pictures running through my mind
Am               F7M           C         C/B
 knowing endless consequences I feel so useless in this 
Am               F7M              C           C/B
 Get back step back and as for me I can't believe


[Chorus]
        Am          F7M                C               C/B
Part of me won't agree cause I don't know if it's for sure
       Am        F7M        C          C/B
Suddenly suddenly I don't feel so insecure   
        Am          F7M                C               C/B
Part of me won't agree cause I don't know if it's for sure
       Am        F7M        C          C/B
Suddenly suddenly I don't feel so insecure 
       Am F7M C C/B
Anymore 

[Solo]
Dave:  e|----------------------------------------------------------------------|
       B|----------------------------------------------------------------------|
       G|-13p10--13p10-10--13p10-13p10-10---10-10h11-11-11-11p10--11p10-\8-\6--|
       D|----------------------------------------------------------------------|
       A|----------------------------------------------------------------------|
       E|----------------------------------------------------------------------|

       e|----------------------------------------------------------------------|
       B|----------------------------------------------------------------------|
       G|-6-6h8-6-\5-6-6-6p5-6-6-6p5-555-333-555-333---------------------------|
       D|----------------------------------------------------------------------|
       A|----------------------------------------------------------------------|
       E|----------------------------------------------------------------------|
 
 
Tom:   e|---------------------------------------3------------------------3-------------------|
       B|-----------------------------------------5\3----1-1----------------5\3---1-1--------|
       G|-4/-5/-7/--9------9\-7\-5--------2/5---------------------2/5------------------------|
       D|------------------------------------------------------------------------------------|
       A|-2/-3/-5/--7------7\-5\-3-----------------------------------------------------------|
       E|------------------------------------------------------------------------------------|

       e|------------------------------------------------------------------------------------|
       B|-0h1p0------------------------------------------------------------------------------|
       G|--------0h2p0-----------------------------------------------------------------------|
       D|---------------0h2p0----------------------------------------------------------------|
       A|------------------------3-----3--2p0h2----------------------------------------------|
       E|---------------------------5-------------3------------------------------------------|

[Chorus]
        Am          F7M                C               C/B
Part of me won't agree cause I don't know if it's for sure
       Am        F7M        C          C/B
Suddenly suddenly I don't feel so insecure   
        Am          F7M                C               C/B
Part of me won't agree cause I don't know if it's for sure
       Am        F7M        C          C/B
Suddenly suddenly I don't feel so insecure 
       Am F7M C C/B
Anymore 

       Am F7M C C/B    Am
Anymore  



            
            
Suggest correction
Creating personal tab
Creating personal tab
You can edit any tab online and save it as your Personal.

You can edit, replace or remove any tab part or add personal notes – all changes will be seen only by you.

Personal tabs can be accessed anytime from any device, even offline.
Learn more »
Give kudos to tab author, rate the tab!
1 2 3 4 5
comments
print report bad tab
1 comment total.
0 reply
rodrigo.pmh 10 Apr 29, 2017 05:34 PM

i cant get the strumming aaaaaaaaa

guest
You may want to rate the tab now too:
select rating
Wanna post a correction for this tab? Suggest correction