Oops, an error
Loading. Please wait.

Im Not The One intro tab

version 3
version 3

Intro

Whole song

Interactive

by Sum 41
89 views 1 this week
no commentswrite comment
1 2 3 4 5
3 more votes to show rating
add to favorites
×
Save as Personal and add changes to this tab that will be seen only by you. Learn more ›
×
You can save this tab as Personal to edit and correct it or add notes. All changes will be seen only by you. Learn more »
launch autoscroll
font size
0
reset
how to read this tab
guitar tuner
edit
Autoscroll
slow
fast
+/-
esc
set tempo
stop
Author
Difficulty
First Tab- Okay so I've looked everywhere for this intro and nobody seems to get it right completely,
especially the last part(the 9 and 0 on high e and the 7 on b mostly) I listened to the intro 100 times and
ran it through 3 different music softwares to slow it down and write down each individual note i hear, It's
the most accurate tab of this intro you will find.(hopefully)

::::MAY BE BETTER HALF STEP DOWN:::::

Beginning Guitar(0:04)

E|--------------------------------------------------
B|--------------------------------------------------
G|--------------------------------------------------
D|--------------------------------------------------
A|--4--4-44---4--4-44---6--6-66---2--2-22-----x2 if your playing alone otherwise one guitar continues this
E|--------------------------------------------------

Beginning intro(0:14)( Listen to song for best speed and theres a lot of rests play it slow and follow along 
and 
it should be pretty easy)

E|--------4--------------4--------------4-----4--------------4-----------------
B|-----------5-----5--------5-----5--------5-----5-----5--------5-----5-----5--
G|-----6--------6-----6--------6-----6--------------6-----6--------6-----6-----
D|-----------------------------------------------------------------------------
A|-----------------------------------------------------------------------------
E|-----------------------------------------------------------------------------

Drums START Intro(0:24)

E|--------4--------4-----------------------9--------0--
B|-----------5--------5-----5-----------------7--7-----
G|--------------6--------6-----6--8--------------------
D|-----------------------------------9--9--------------
A|-----------------------------------------------------
E|-----------------------------------------------------

                                                        

            
            
Suggest correction
Creating personal tab
Creating personal tab
You can edit any tab online and save it as your Personal.

You can edit, replace or remove any tab part or add personal notes – all changes will be seen only by you.

Personal tabs can be accessed anytime from any device, even offline.
Learn more »
Give kudos to tab author, rate the tab!
1 2 3 4 5
comments
print report bad tab
guest
You may want to rate the tab now too:
select rating
Wanna post a correction for this tab? Suggest correction