Oops, an error
Loading. Please wait.

In Too Deep Tab

324,015 views 261 this week
31 commentsread comments
1 2 3 4 5
accurate
x 67
add to favorites
launch autoscroll
font size
0
reset
how to read this tab
guitar tuner
Tab Pro tools
  • play this tab
  • loop segment
  • change instrument
  • show fretboard
  • metronome
×
Best way to learn
"In Too Deep"
Autoscroll
slow
fast
+/-
esc
set tempo
stop
Sum-41, In Too Deep.
 Tabbed by chaos12567@hotmail.com.
  
Intro and Verse:  Guitar 1          Guitar 2 
e---------------------------------|--------------4----------------------------
b---------------------------------|----------5--------------------------------
g--------1-22-4-2--------------1--|--4-444-4---4---4----444-4-------4---------
d---2--------------------1-2-4----|---------------------------7-6-7-----------
a------------------000-0----------|-------------------------------------------
D-2----2--------------------------|-------------------------------------------


Verse Part 2:  Guitar 1         Guitar 2
e-4--4-4--5--5-5--4--4-4------|--------------4---------------------------------
b-5--5-5--5--5-5--5--5-5------|----------5-------------------------------------
g-4--4-4--6--6-6--4--4-4------|--4-444-4---4---4---444-4-------4---------------
d------------------------7777-|--------------------------7-6-7-----------------
a------------------------7777-|------------------------------------------------
D------------------------7777-|------------------------------------------------
pm                       ..

Chorus:  Guitars 1 and 2 
e------------------------------------------------------------------------------
b------------------------------------------------------------------------------
g----22----22----22----2-----22----22----22-9999-7777--------------------------
d-22-22-22-22-22-22-22-2--22-22-22-22-22-22-9999-7777-7777-xxxx----------------
a-22-00-22-00-22-00-22-0--22-00-22-00-22-00-7777-5555-7777-xxxx----------------
D-22----22----22----22----22----22----22--------------7777-xxxx----------------


After Chorus Thing:
Guitar 1                          Guitar 2(same as guitar 1 except for tiny bit)
e-----------------------------------------|-------------------------------------
b-----------------------------------------|-------------------------------------
g-----------------------------------------|----9--------------------------------
d-22-2-7767-22-2-7767-22-2-7767-22-2-7646-|-22-x-7767---------------------------
a-22---7767-22---7767-22---7767-22---7646-|-22-7-7767---etc---------------------
D-22---7767-22---7767-22---7767-22---7646-|-22---7767---------------------------


Verse:  You can pick what guitars you want here
e------------------------------------------------------------------------------
b------------------------------------------------------------------------------
g------------------------------------------------------------------------------
d-22--6-77--7-22--6-77-677-722--6-77--7-22--6-77-677-7-------------------------
a-22--6-77--7-22--6-77-677-722--6-77--7-22--6-77-677-7-------------------------
D-22--6-77--7-22--6-77-677-722--6-77--7-22--6-77-677-7-------------------------


Pre Chorus: Again you can pick the guitars you want
e------------------------------------------------------------------------------
b------------------------------------------------------------------------------
g------------------------------------------------------------------------------
d--2222-7777-2222-7777---------------------------------------------------------
a--2222-7777-2222-7777---------------------------------------------------------
D--2222-7777-2222-7777---------------------------------------------------------
pm ....  ...  ... ..


Chorus:  Guitars 1 and 2 
e--------------------------------------------------------------------------------
b--------------------------------------------------------------------------------
g----22----22----22----2-----22----22----22-9999-7777----------9999-7777---------
d-22-22-22-22-22-22-22-2--22-22-22-22-22-22-9999-7777-77777777-9999-7777-77777777
a-22-00-22-00-22-00-22-0--22-00-22-00-22-00-7777-5555-77777777-7777-5555-77777777
D-22----22----22----22----22----22----22--------------77777777-----------77777777


Interlude: Guitar 1
e------------------------------------------------------------------------------
b------------------------------------------------------------------------------
g------------------------------------------------------------------------------
d-22-2-22-2-22-2-22-xxxx-------------------------------------------------------
a-22---22---22---22-xxxx-------------------------------------------------------
D-22---22---22---22-xxxx-------------------------------------------------------


Solo: Guitar 1
e------------------------------------------------------------------------------
b------------------------------------------------------------------------------
g-----------7777----------------7777-------------------------------------------
d-2222-4444-7777-7776-2222-4444-7777-7776--------------------------------------
a-2222-4444-5555-7776-2222-4444-5555-7776--------------------------------------
D-2222-4444------7776-2222-4444------7776--------------------------------------


Solo:  Guitar 2 X2                   2nd time do this |2-12b14r12--------------
e--4h5p4-4h5p4-0h7p0-0h7p0-2s4s2s45--4p0-5p0-7p0-5p0-4-2-4-5-------------------
b------------------------------------------------------------------------------
g------------------------------------------------------------------------------
d------------------------------------------------------------------------------
a------------------------------------------------------------------------------
D------------------------------------------------------------------------------


2nd Interlude Bit: Guitar 1            Guitar 2(on the third time of Guitar 1)
e--------------------------------------------|-------------------------------
b--------------------------------------------|-------------------------------
g--------------------------------------------|-989---------------------------
d-22--44--77--99--------------22--44--7-xxxx-|-xxx----repeated 7X------------
a-22--44--77--99-X5 then this 22--44--7-xxxx-|-767---------------------------
D-22--44--77--99--------------22--44--7-xxxx-|-------------------------------


Chorus: Guitar 1                  
e-----------------------------------------------------------------------
b-----------------------------------------------------------------------
g-----------------------------------------------------------------------
d-22-2-7767-22-2-7767-22-2-7767-22-2-7646-22-2-7767-22-2-7767-22-2-7767-
a-22---7767-22---7767-22---7767-22---7646-22---7767-22---7767-22---7767-
D-22---7767-22---7767-22---7767-22---7646-22---7767-22---7767-22---7767-

Guitar 1(Play Last bit as many needed till end)(play 10 every 2nd time)
e------------------------------
b------------------------------
g-9999-7777--------------------
d-9999-7777-77777777-10101010--
a-7777-5555-77777777-10101010--
D-----------77777777-10101010--


Guitar 2 (follow Guitar 1)      (After Guitar 1 plays last bit twice)
e------------------------------|-4-5-4-5-7-5-4-5-4-5-4-5-4-2-0-2----(end on e)--
b------------------------------|------------------------------------------------
g----9---------9---------------|------------------------------------------------
d-22-x-7767-22-x-7767----------|------------------------------------------------
a-22-7-7767-22-7-7767--etc etc-|------------------------------------------------
D-22---7767-22---7767----------|------------------------------------------------







 
:: Ultimate Guitar Archive :: 
http://www.ultimate-guitar.com 



comments
print report bad tab
31 comments total. Showing first comments.
0 reply
regality93 wrote on November 11 2001, 12:00 am

the solo sounds better if you don't slide but hammer on and pull off. anyway, great tap

+1 reply
verymadmatt316 wrote on January 1 2002, 12:00 am

Sorry dude, but that solo's completely wrong. Where's the tapping in that? The plays about 6 notes in one beat & there's only 2 on yours. Try again...

0 reply
nickbrough wrote on January 14 2002, 12:00 am

this is a crap tab version 4 is well good

I want to post or [tab]
guest
You may want to rate the tab now too:
select rating
Please do not post tabs as comments. Select "correction" instead!