Oops, an error
Loading. Please wait.

In Too Deep Tab

332,706 views 240 this week
31 commentsread comments
1 2 3 4 5
x 70
add to favorites
launch autoscroll
font size
0
reset
how to read this tab
guitar tuner
Autoscroll
slow
fast
+/-
esc
set tempo
stop
Help us to improve Ultimate-Guitar.com Take our survey!
×
Tuning
D A D G B E
Sum-41, In Too Deep.
 Tabbed by chaos12567@hotmail.com.

[Intro and Verse]
                            Guitar 1          Guitar 2
E|---------------------------------|--------------4----------------------------|
B|---------------------------------|----------5--------------------------------|
G|--------1-22-4-2--------------1--|--4-444-4---4---4----444-4-------4---------|
D|---2--------------------1-2-4----|---------------------------7-6-7-----------|
A|------------------000-0----------|-------------------------------------------|
D|-2----2--------------------------|-------------------------------------------|


[Verse Part 2]
                        Guitar 1         Guitar 2
E|-4--4-4--5--5-5--4--4-4------|--------------4---------------------------------|
B|-5--5-5--5--5-5--5--5-5------|----------5-------------------------------------|
G|-4--4-4--6--6-6--4--4-4------|--4-444-4---4---4---444-4-------4---------------|
D|------------------------7777-|--------------------------7-6-7-----------------|
A|------------------------7777-|------------------------------------------------|
D|------------------------7777-|------------------------------------------------|
pm                       ..


[Chorus]
Guitars 1 and 2

E|------------------------------------------------------------------------------|
B|------------------------------------------------------------------------------|
G|----22----22----22----2-----22----22----22-9999-7777--------------------------|
D|-22-22-22-22-22-22-22-2--22-22-22-22-22-22-9999-7777-7777-xxxx----------------|
A|-22-00-22-00-22-00-22-0--22-00-22-00-22-00-7777-5555-7777-xxxx----------------|
D|-22----22----22----22----22----22----22--------------7777-xxxx----------------|


[Post-Chorus]

 Guitar 1                          Guitar 2(same as guitar 1 except for tiny bit)
E|-----------------------------------------|-------------------------------------|
B|-----------------------------------------|-------------------------------------|
G|-----------------------------------------|----9--------------------------------|
D|-22-2-7767-22-2-7767-22-2-7767-22-2-7646-|-22-x-7767---------------------------|
A|-22---7767-22---7767-22---7767-22---7646-|-22-7-7767---etc---------------------|
D|-22---7767-22---7767-22---7767-22---7646-|-22---7767---------------------------|


[Verse]  

You can pick what guitars you want here
E|------------------------------------------------------------------------------|
B|------------------------------------------------------------------------------|
G|------------------------------------------------------------------------------|
D|-22--6-77--7-22--6-77-677-722--6-77--7-22--6-77-677-7-------------------------|
A|-22--6-77--7-22--6-77-677-722--6-77--7-22--6-77-677-7-------------------------|
D|-22--6-77--7-22--6-77-677-722--6-77--7-22--6-77-677-7-------------------------|


[Pre-Chorus] 
Again you can pick the guitars you want
E|------------------------------------------------------------------------------|
B|------------------------------------------------------------------------------|
G|------------------------------------------------------------------------------|
D|--2222-7777-2222-7777---------------------------------------------------------|
A|--2222-7777-2222-7777---------------------------------------------------------|
D|--2222-7777-2222-7777---------------------------------------------------------|
pm ....  ...  ... ..


[Chorus] 
Guitars 1 and 2

E|---------------------------------------------------------------------------------|
B|---------------------------------------------------------------------------------|
G|----22----22----22----2-----22----22----22-9999-7777----------9999-7777----------|
D|-22-22-22-22-22-22-22-2--22-22-22-22-22-22-9999-7777-77777777-9999-7777-77777777-|
A|-22-00-22-00-22-00-22-0--22-00-22-00-22-00-7777-5555-77777777-7777-5555-77777777-|
D|-22----22----22----22----22----22----22--------------77777777-----------77777777-|


[Interlude]
Guitar 1

E|----------------------------------------------------------------------------------|
B|----------------------------------------------------------------------------------|
G|----------------------------------------------------------------------------------|
D|-2-2-2-2-2-2-2-2-2-2-2-xxxx-------------------------------------------------------|
A|-2-2---2-2---2-2---2-2-xxxx-------------------------------------------------------|
D|-2-2---2-2---2-2---2-2-xxxx-------------------------------------------------------|


[Solo]

Guitar 1

E|------------------------------------------------------------------------------------------------------|
B|------------------------------------------------------------------------------------------------------|
G|-----------------7-7-7-7-------------------------7-7-7-7----------------------------------------------|
D|-2-2-2-2-4-4-4-4-7-7-7-7-7-7-7-6-2-2-2-2-4-4-4-4-7-7-7-7-7-7-7-6--------------------------------------|
A|-2-2-2-2-4-4-4-4-5-5-5-5-7-7-7-6-2-2-2-2-4-4-4-4-5-5-5-5-7-7-7-6--------------------------------------|
D|-2-2-2-2-4-4-4-4---------7-7-7-6-2-2-2-2-4-4-4-4---------7-7-7-6--------------------------------------|


[Solo]

        Guitar 2 X2                   2nd time do this |2-12b14r12--------------|
E|--4h5p4-4h5p4-0h7p0-0h7p0-2s4s2s45--4p0-5p0-7p0-5p0-4-2-4-5-------------------|
B|------------------------------------------------------------------------------|
G|------------------------------------------------------------------------------|
D|------------------------------------------------------------------------------|
A|------------------------------------------------------------------------------|
D|------------------------------------------------------------------------------|


[2nd Interlude Bit]
                    Guitar 1            Guitar 2(on the third time of Guitar 1)
E|---------------------------------------------------|-----------------------------------|
B|---------------------------------------------------|-----------------------------------|
G|---------------------------------------------------|-9-8-9-----------------------------|
D|-2-2--4-4--7-7--9-9--------------2--2--4-4--7-xxxx-|-x-x-x--------repeated 7X----------|
A|-2-2--4-4--7-7--9-9-X5 then this 2--2--4-4--7-xxxx-|-7-6-7-----------------------------|
D|-2-2--4-4--7-7--9-9--------------2--2--4-4--7-xxxx-|-----------------------------------|


[Chorus]

Guitar 1
E|---------------------------------------------------------------------------------------------------|
B|---------------------------------------------------------------------------------------------------|
G|---------------------------------------------------------------------------------------------------|
D|-2-2-2-7-7-6-7-2-2-2-7-7-6-7-2-2-2-7-7-6-7-2-2-2-7-6-4-6-2-2-2-7-7-6-7-2-2-2-7-7-6-7-2-2-2-7-7-6-7-|
A|-2-2---7-7-6-7-2-2---7-7-6-7-2-2---7-7-6-7-2-2---7-6-4-6-2-2---7-7-6-7-2-2---7-7-6-7-2-2---7-7-6-7-|
D|-2-2---7-7-6-7-2-2---7-7-6-7-2-2---7-7-6-7-2-2---7-6-4-6-2-2---7-7-6-7-2-2---7-7-6-7-2-2---7-7-6-7-|


Guitar 1(Play Last bit as many needed till end)(play 10 every 2nd time)
E|-------------------------------------------|
B|-------------------------------------------|
G|-9-9-9-9-7-7-7-7---------------------------|
D|-9-9-9-9-7-7-7-7-7-7-7-7-7-7-7-7-10101010--|
A|-7-7-7-7-5-5-5-5-7-7-7-7-7-7-7-7-10101010--|
D|-----------------7-7-7-7-7-7-7-7-10101010--|


 Guitar 2 (follow Guitar 1)      (After Guitar 1 plays last bit twice)
E|------------------------------|-4-5-4-5-7-5-4-5-4-5-4-5-4-2-0-2----(end on e)--|
B|------------------------------|------------------------------------------------|
G|----9---------9---------------|------------------------------------------------|
D|-22-x-7767-22-x-7767----------|------------------------------------------------|
A|-22-7-7767-22-7-7767--etc etc-|------------------------------------------------|
D|-22---7767-22---7767----------|------------------------------------------------|
Suggest correction
comments
print report bad tab
31 comments total. Showing first comments.
0 reply
regality93 10 Nov 11, 2001 12:00 AM

the solo sounds better if you don't slide but hammer on and pull off. anyway, great tap

+1 reply
verymadmatt316 15 Jan 01, 2002 12:00 AM

Sorry dude, but that solo's completely wrong. Where's the tapping in that? The plays about 6 notes in one beat & there's only 2 on yours. Try again...

0 reply
nickbrough 0 Jan 14, 2002 12:00 AM

this is a crap tab version 4 is well good

guest
You may want to rate the tab now too:
select rating
Wanna post a correction for this tab? Suggest correction