Oops, an error
Loading. Please wait.
We have an official Makes No Difference tab made by UG professional guitarists. Check out the tab »
×
by Sum 41
1,532 views 1 this week
1 commentread comment
1 2 3 4 5
2 more votes to show rating
add to favorites
×
Save as Personal and add changes to this tab that will be seen only by you. Learn more ›
×
You can save this tab as Personal to edit and correct it or add notes. All changes will be seen only by you. Learn more »
launch autoscroll
font size
0
reset
guitar tuner
edit
Autoscroll
slow
fast
+/-
esc
set tempo
stop
Author
Difficulty
Makes No Difference Bass Tab
Song by: Sum 41
Tuning: Standard

After small guitar intro:

Verse:
G-------------------------------------------------------------------------------------|
D-------------------------------------------------------------------------------------|
A----6-6-6-6-6-6-6-6--5-5-5-5-5-5-5-5--3-3-3-3-3-3-3-3--------------------------------|
E--------------------------------------------------------------------4-4-4-4-4-4-4-4--|
X4

Chorus:
G----------------------------------------------------------------------------------|
D------------------------------------------------6-6-6-6-6-6-6-6--9-9-9-9-9-9-9-9--|
A-----6-6-6-6-6-6-6-6--8-8-8-8-8-8-8-8---------------------------------------------|
E----------------------------------------------------------------------------------|
X2

Pre Verse:
G--------------------------------------------------|
D--------------------------------------------------|
A-----6----6--6---------------3-3-3----------------|
E-----------------------6-6-6------------4----4-4--|
X2

Then:
Verse X4
Chorus X2
Then:

Pre solo
G----------------------------------------------------------------------|
D----------------------------------------------------------------------|
A-------------6--6---6-6---5-5-5-5-5-5---------------------------------|
E ----------------------------------------------6--6---6-6--4-4-4-4-4--|
X4

Solo:
G-----12----------10---------12--------13--|
D------------------------------------------|
A------------------------------------------|
E------------------------------------------|
X6
Or
Pre-VerseX6

Finish with:
ChorusX2
Pre-VerseX4

            
            
Suggest correction
Creating personal tab
Creating personal tab
You can edit any tab online and save it as your Personal.

You can edit, replace or remove any tab part or add personal notes – all changes will be seen only by you.

Personal tabs can be accessed anytime from any device, even offline.
Learn more »
Give kudos to tab author, rate the tab!
1 2 3 4 5
comments
print report bad tab
1 comment total.
0 reply
auditek 146 Dec 27, 2008 11:56 AM

good tab but tune down 1/2 step

guest
You may want to rate the tab now too:
select rating
Wanna post a correction for this tab? Suggest correction