Oops, an error
Loading. Please wait.

March Of The Dogs tab

version 2
version 2
by Sum 41
17,842 views 21 this week
22 commentsread comments
1 2 3 4 5
x 30
add to favorites
×
Save as Personal and add changes to this tab that will be seen only by you. Learn more ›
×
You can save this tab as Personal to edit and correct it or add notes. All changes will be seen only by you. Learn more »
launch autoscroll
font size
0
reset
how to read this tab
guitar tuner
edit
Autoscroll
slow
fast
+/-
esc
set tempo
stop
Song:March of the Dogs
Album:Underclass Hero
Artist:Sum 41
Date Tabbed:April,2007
Guitar Tabber:Ryan Manongdo/17/m/Philippines
              no_falter0x@yahoo.com(Friendster&YM)

For your questions or suggestions,just post in friendster comment,PM or mail me.

Salamat ng marami:-)

Band Line-Up
* Deryck Whibley/Bizzy D (Lead Vocals, Guitar)
* Jason McCaslin/Cone (Bass, Vocals)
* Steve Jocz/Stevo 32/Stevo (Drums, Vocals)
* Tom Delonge/Mr. Airwaves (Touring Guitars)

Gtr.Legends:
. - palm muting
x - dead string
~ - let it ring
/ - slide
b - bend

Gtr.Tuning:Standard(Normal)

Intro prt.1:
Gtr.2
e|------------------------|
B|------------------------|
G|---xxx--xxx--xxx--xxx---|
D|---xxx--xxx--xxx--xxx---|
A|-22222222222222222222---|
E|------------------------|

Intro prt.2
Gtr.1:
e|---------------------      -------------------------|
B|---------------------      -------------------------|
G|-4444---------------- 2x   -------------------------|
D|-4444-4444-6666-2222- Then -4--2-4--2-4--2-4--2-4---|
A|-2222-4444-6666-2222-      -2--0-2--0-2--0-2--0-2---|
E|------2222-4444-0000-      -------------------------|

Gtr.2
e|---------------------      -------------------------|
B|---------------------      -------------------------|
G|--------------------- 2x   -------------------------|
D|--------------------- Then -------------------------|
A|-222-11111-----------      -222222222222222222222---|
E|-----------4444-0000-      -------------------------|

Verse 1:I don't believe...
Gtr.1
e|------------------------------|
B|------------------------------|
G|------------------------------|
D|-2--4-----4-6---2-2-----4-6---|
A|-0--2-----4-6---2-2-----4-6---|
E|----------2-4---0-0-----2-4---|

Gtr.2
e|-------------------------------------------|
B|-------------------------------------------|
G|-------------------------------------------|
D|-------------------------------------------|
A|-222-11111---------------------------------|
E|-----------4444-2222-0000-2222-4444-2222---|


Pre-Chorus 1:And here we go...          (CLEAN GTR.)
e|------------------------------------------------------------------------|
B|------------------------------------------------------------------------|
G|-------------------------------------------4/6----4/6-------------------|
D|-22222-4444-66666--44444---222222--4444---------------2222222--444444---|
A|-22222-4444-66666--44444---222222--4444--2------2-----2222222--444444---|
E|-00000-2222-44444--22222---000000--2222---------------0000000--222222---|

Chorus:March of the dogs...
Gtr.1:
e|---------------------      --------------------------|
B|---------------------      --------------------------|
G|-4444---------------- 2x   -44444-4444---------------|
D|-4444-4444-6666-2222- Then -44444-4444-6666-222222---|
A|-2222-4444-6666-2222-      -22222-1111-6666-222222---|
E|------2222-4444-0000-      ------------4444-000000---|

Gtr.2
e|---------------------      --------------------------|
B|---------------------      --------------------------|
G|--------------------- 2x   -444444-4444-6666---------|
D|--------------------- Then -444444-4444-6666-22222---|
A|-222-11111-----------      -222222-1111-4444-22222---|
E|-----------4444-0000-      ------------------00000---|

Pre-Verse 2:
Gtr.1
e|-------------------------------------------------------------|
B|-------------------------------------------------------------|
G|-------------------------------------------------------------|
D|-6-6-6-6-6-6---4-4-4-4-4-4---2-2-2-2-2-2-2-2-2---4-4-4-4-4---|
A|-6-6-6-6-6-6---4-4-4-4-4-4---2-2-2-2-2-2-2-2-2---4-4-4-4-4---|
E|-4-4-4-4-4-4---2-2-2-2-2-2---0-0-0-0-0-0-0-0-0---2-2-2-2-2---|
   . . . . . .   . . . . . .   . . . . . . . . .   . . . . .

Gtr.2
e|---------------------|
B|---------------------|
G|-4/6b---2/4b---------| I dunno if this is a bass but try to listen
D|--------------6/8b---| so you can here this part well.
A|---------------------|
E|---------------------|

Verse 2:It may be...
Play Gtr.2 Only

Repeat Pre-Chorus:

Repeat Chorus:

Bridge prt.1:Hey,hey,hey...
e|-----------------------|
B|-----------------------|
G|-4444444444444444444---|
D|-xxxxxxxxxxxxxxxxxxx---|
A|-2222222222222222222---|
E|-----------------------|

Bridge prt.2(Solo):
Gtr.1
e|----------------------------|
B|----------------------------|
G|--------------44444---------| 2x
D|-666666-22222-44444-44444---| Then
A|-666666-22222-22222-44444---|
E|-444444-00000-------22222---|

Gtr.2
e|------------------------------------------------|
B|------------------------------------------------|
G|------------------------------------------------| 2x
D|-6--4--1--2-------------------------------------| Then
A|-------------4-2---------2~---2-4-2-1-2-1-2-4---|
E|------------------2/4--2------------------------|

Bridge prt.3
Gtr.1
e|----------------------------|
B|----------------------------|
G|-1212121212--111111111111---| 2x
D|-1212121212--111111111111---|
A|-1010101010---9-9-9-9-9-9---|
E|----------------------------|

Gtr.2
e|-----------------------------------------------
B|-----------------------------------------------
G|-7777--6666--4444--6666--4444-3333-4444-6666---
D|-----------------------------------------------
A|-----------------------------------------------
E|-----------------------------------------------

-------------------------------------------|
-------------------------------------------|
--7777--6666--4444--6666--4444-3-4-3-4-3---|
-------------------------------------------|
-------------------------------------------|
-------------------------------------------|


After Bridge:Another president dead...
Gtr.1
e|----------------------------------------------|
B|----------------------------------------------|
G|----------------------------------------------|
D|-4--2-4--2-4--4-4/6--2-4--4-4/6--2-4--4-4/6---|
A|-2--0-2--0-2--4-4/6--0-2--4-4/6--0-2--4-4/6---|
E|--------------2-2/4-------2-2/4-------2-2/4---|

Gtr.2:
e|----------------------------------------------------------------------------------|
B|----------------------------------------------------------------------------------|
G|----------------------------------------------------------------------------------|
D|----------------------------------------------------------------------------------|
A|-22222222222222222222-11111--------------2222-1111-----------222-1111-------------|
E|-----------------------------4444--0000------------4444-0000----------4444-0000---|

Outro:Lalalala...
e|-------------------      ------|
B|-------------------      ------|
G|-444-----666------- 4x   -4~---|
D|-444-666-666-4444-- Then -4~---|
A|-222-666-444-4444--      -2~---|
E|-----444-----2222--      ------|

End...


March Of The Dogs Lyrics:

Pre-Verse 1:
Ladies and gentlemen of the underclass,
The president of the United States of America,
Is Dead!

Verse 1:
I don't believe in the politics,
Of chosen fools and hypocrites,
Who walk a line that stretched so fine,
Is death or glory had in mind?

Pre-Chorus 1:
And here we go,
I guess the resolution,
No-one knows,
Who'll lead this revolution now,
attention grows,
the way to a conclusion,
It's too late there's no time, (its too late there's no time)
All for none, never was two, three, four

Chorus:
March of the dogs,
to a beat of disillusion
sworn under god,
breeding panic and confusion,
the white flag is down,
send in the clowns,
the carnival of sins is now going to begin,

Verse 2
It may be I'm a pessimist,
but I say we need an exorcist,
the root of all evil standing tall,
Under god and above us all,

Pre-Chorus 2:
And here we go,
I'm getting desperation,
all we know,
Is confusion and frustration,
Ditch your clothes,
no vision of salvation
It's too late there's no time, (it's too late there's no time)
All for none, never was two, three, four

Repeat Chorus:

Bridge:
the carnival of sins is now going to begin,

Hey! Hey! Hey! Hey!
A-one, two, three, four

After Bridge:
Another president dead,
because they blew off his head,
no more kids to be led,
yes to heaven he fled,
was it something he said,
because of who's in his bed,
by who will we be led?
by whose hand will we be fed?
all the lies by the lying liars who said
we'll be fine,
its OK,
hey look mom no head

Outro:
la la la la la la la
(random)
It's OK, it's alright



I would like to greet my asshole bandmates,

Garrote:

Dino Testa - Vocals
Eduardo Capistrano - Guitar
Kenjiro Uezono - Guitar
Ryan Manongdo - Bass
Aeroll Cayetano - Drums
Suggest correction
Creating personal tab
Creating personal tab
You can edit any tab online and save it as your Personal.

You can edit, replace or remove any tab part or add personal notes – all changes will be seen only by you.

Personal tabs can be accessed anytime from any device, even offline.
Learn more »
comments
print report bad tab
22 comments total. Showing first comments.
-1 reply
R-Man 20 Apr 23, 2007 04:23 AM

gooooood job!

0 reply
No_Falter08 2,414 Apr 23, 2007 05:56 AM

really??i will update my tab tom. tnx alot!!

0 reply
dm_rick 80 Apr 24, 2007 04:24 AM

wow this sure got up fast.

guest
You may want to rate the tab now too:
select rating
Wanna post a correction for this tab? Suggest correction