Oops, an error
Loading. Please wait.

March Of The Dogs tab

version 3
version 3
by Sum 41
589 views 1 this week
no commentswrite comment
1 2 3 4 5
1 last vote to show rating
add to favorites
×
Save as Personal and add changes to this tab that will be seen only by you. Learn more ›
×
You can save this tab as Personal to edit and correct it or add notes. All changes will be seen only by you. Learn more »
launch autoscroll
font size
0
reset
how to read this tab
guitar tuner
edit
Autoscroll
slow
fast
+/-
esc
set tempo
stop
Author
Unregistered
Intro:
|-------------------|
|-------------------|
|-------------------|
|-------------------|
|--2-2-222-2-2-222--|
|-------------------| x8

Intro part 2:
Guitar One:
|-----------------------------------|
|-----------------------------------|
|-----------------------------------|
|-----------------------------------|
|--2-2-2-2-1-1-1-1------------------|
|------------------4-4-4-4-0-0-0-0--| x2

Guitar Two:
|-----------------------------------|    |-----|
|-----------------------------------|    |-----|
|--4-4-4-4-4-4-4-4-4-4-4-4-4-4-4-4--|    |--4\-|
|--4-4-4-4-4-4-4-4-4-4-4-4-4-4-4-4--|    |--4\-|
|--2-2-2-2-2-2-2-2-2-2-2-2-4-4-4-4--|    |--2\-|
|-----------------------------------| x2 |-----|

Then the intro part one bit comes in again with this over the top:
|--------|
|--------|
|--------|
|--7-9\--|
|--7-9\--|
|--5-7\--| x5

Then for the verse it changes:
Guitar One:
|----------------------------------------------------------------
|----------------------------------------------------------------
|----------------------------------------------------------------
|----------------------------------------------------------------
|--2-2-222-2-2-222-1-1-111-1-1-111-------------------------------
|----------------------------------4-4-444-4-444-2-2-222-2-2-222-
 
 ------------------------------------------------------------------|
 ------------------------------------------------------------------|
 ------------------------------------------------------------------|
 ------------------------------------------------------------------|
 ------------------------------------------------------------------|
 -0-0-000-0-0-000-2-2-222-2-2-222-4-4-444-4-4-444-2-2-222-2-2-222--|

Guitar Two:
|--------------------------------|
|--------------------------------|
|--------------------------------|
|--7-9\----4-6\----2-2-----4-6\--|
|--7-9\----4-6\----2-2-----4-6\--|
|--5-7\----2-4\----0-0-----2-4\--|

Pre-chorus:
Guitar One:
|-----------------------------------|
|-----------------------------------|
|-----------------------------------|
|-----------------------------------|
|--2h4p2-2-2--2h4p2-2-2--2h4p2-2-2--|
|-----------------------------------|
                                 ___/
Guitar Two:                     /
|-------------------------------|----------|
|-------------------------------|----------|this has no guitar one
|-------------------------------|----------|(or it is played  
|--2--4--6--4--2--4-------------|-2~---4~--| by both guitars)
|--2--4--6--4--2--4--|-2~---4~--|
|--0--2--4--2--0--2-------------|-0~---2~--|
 (listen to song for
  strumming pattern)

Chorus is the same as intro part two (with same amount), then do one round of it half speed.

Bridge One:
|-----------------------------------------------------------|
|--4-4-4-4-4-4-4-4-4-4-4-4-4-4-4-4-4-4-4-4-4-4-4-4-4-4-4-4--|
|--4-4-4-4-4-4-4-4-4-4-4-4-4-4-4-4-4-4-4-4-4-4-4-4-4-4-4-4--|
|--6-6-6-6-6-6-6-4-4-4-4-4-4-4-2-2-2-2-2-2-2-4-4-4-4-4-4-4--|
|-----------------------------------------------------------|
|-----------------------------------------------------------|
This is not a mistake, there are indeed seven strums per chord.

Repeat verse, pre-chorus and chorus, but in verse there is no guitar two.

Bridge Two:
|-------------------|
|--0-0-000-0-0-000--|
|-------------------|
|-------------------|
|-------------------|
|-------------------| x4

Solo:
Guitar One
|-----------------------------------------------------|
|-----------------------------------------------------|
|-----------------------------------------------------|
|--6~-4~----------------------------------------------|
|--------6~-7~----------------2~----2-4-2~1~2~1~---2--|
|--------------9~-7~----4~-2~--------------------4~---| x2

Guitar Two
|------------------|
|------------------|
|----------4-------|
|--6---4---4---4---|
|--4---2---2---2---|
|--4---2-------2---| x2
Solo 2:
Guitar One
|-----------------------------------
|--3333222200002222------------2222-
|------------------444433334444-----
|-----------------------------------
|-----------------------------------
|-----------------------------------

 ---------------------------------------|
 -3333222200002222----------------------|
 -----------------444333444333-4-3--4\--|
 ---------------------------------------|
 ---------------------------------------|
 ---------------------------------------|

Guitar Two
|----------------------|
|----------------------|
|------------------4\--|
|--6---4---6---4---4\--|
|--6---4---6---4---2\--|
|--4---2---4---2-------|
 (listen to song
  for strumming 
     pattern)

Bit like intro (do last part of intro first then):
Guitar One:
|-----------------------------------------------------------------|
|-----------------------------------------------------------------|
|-----------------------------------------------------------------|
|-----------------------------------------------------------------|
|--2-2-222-2-2-222-1-1-111-1-1-111--------------------------------|
|------------------2-2-222-2-2-222-4-4-444-4-444-0-0-000-0-0-000--| x3

Guitar Two:
|----------------|
|----------------|
|----------------|
|--7-9\----4-6\--|
|--7-9\----4-6\--|
|--5-7\----2-4\--| x3

End:
|---------------------------------------|
|---------------------------------------|
|--4-4-4-----------6-6-6-6-6------------|
|--4-4-4-6-6-6-6-6-6-6-6-6-6-4-4-4-4-4--|
|--2-2-2-6-6-6-6-6-4-4-4-4-4-4-4-4-4-4--|
|--------4-4-4-4-4-----------2-2-2-2-2--| x4

End on 244 B power chord. Enjoy!!

            
            
Suggest correction
Creating personal tab
Creating personal tab
You can edit any tab online and save it as your Personal.

You can edit, replace or remove any tab part or add personal notes – all changes will be seen only by you.

Personal tabs can be accessed anytime from any device, even offline.
Learn more »
Give kudos to tab author, rate the tab!
1 2 3 4 5
comments
print report bad tab
guest
Wanna post a correction for this tab? Suggest correction