Oops, an error
Loading. Please wait.

March Of The Dogs tab

version 4
version 4
by Sum 41
855 views 1 this week
6 commentsread comments
1 2 3 4 5
x 4
add to favorites
×
Save as Personal and add changes to this tab that will be seen only by you. Learn more ›
×
You can save this tab as Personal to edit and correct it or add notes. All changes will be seen only by you. Learn more »
launch autoscroll
font size
0
reset
how to read this tab
guitar tuner
edit
Autoscroll
slow
fast
+/-
esc
set tempo
stop
----------------------------------------------------------------------------
                             March of the Dogs - Sum 41
----------------------------------------------------------------------------
         

                        

Guitar I (E A D G B E) - 'Deryck Whibley'
Guitar II (E A D G B E) - 'Deryck Whibley'
  



Guitar I:

     S S T T T T S S T T T T S S T T T T S S T T T T  
E||--------------------------------------------------|
B||--------------------------------------------------|
G||--------------------------------------------------|
D||--------------------------------------------------|
A||--x-x-x-x-x-x-x-x-x-x-x-x-x-x-x-x-x-x-x-x-x-x-x-x-|
E||--7-7-7-7-7-7-7-7-7-7-7-7-7-7-7-7-7-7-7-7-7-7-7-7-|


  S S T T T T S S T T T T S S T T T T S S T T T T  
--------------------------------------------------|
--------------------------------------------------|
--------------------------------------------------|
--------------------------------------------------|
--x-x-x-x-x-x-x-x-x-x-x-x-x-x-x-x-x-x-x-x-x-x-x-x-|
--7-7-7-7-7-7-7-7-7-7-7-7-7-7-7-7-7-7-7-7-7-7-7-7-|


  S S T T T T S S T T T T S S T T T T S S T T T T  
--------------------------------------------------|
--------------------------------------------------|
--------------------------------------------------|
--------------------------------------------------|
--x-x-x-x-x-x-x-x-x-x-x-x-x-x-x-x-x-x-x-x-x-x-x-x-|
--7-7-7-7-7-7-7-7-7-7-7-7-7-7-7-7-7-7-7-7-7-7-7-7-|


  S S T T T T S S T T T T S S T T T T S S T T T T    Q    Q    Q    Q     
--------------------------------------------------|----------------------|
--------------------------------------------------|----------------------|
--------------------------------------------------|----------------------|
--------------------------------------------------|----------------------|
--x-x-x-x-x-x-x-x-x-x-x-x-x-x-x-x-x-x-x-x-x-x-x-x-|--2----1--------------|
--7-7-7-7-7-7-7-7-7-7-7-7-7-7-7-7-7-7-7-7-7-7-7-7-|------------4----0----|


  Q    Q    Q    Q       S S T T T T S S T T T T S S T T T T S S T T T T  
----------------------|--------------------------------------------------|
----------------------|--------------------------------------------------|
----------------------|--------------------------------------------------|
----------------------|--------------------------------------------------|
--2----1--------------|--x-x-x-x-x-x-x-x-x-x-x-x-x-x-x-x-x-x-x-x-x-x-x-x-|
------------4----0----|--7-7-7-7-7-7-7-7-7-7-7-7-7-7-7-7-7-7-7-7-7-7-7-7-|


  S S T T T T S S T T T T S S T T T T S S T T T T  
--------------------------------------------------|
--------------------------------------------------|
--------------------------------------------------|
--------------------------------------------------|
--x-x-x-x-x-x-x-x-x-x-x-x-x-x-x-x-x-x-x-x-x-x-x-x-|
--7-7-7-7-7-7-7-7-7-7-7-7-7-7-7-7-7-7-7-7-7-7-7-7-|


  S S T T T T S S T T T T S S T T T T S S T T T T  
--------------------------------------------------|
--------------------------------------------------|
--------------------------------------------------|
--------------------------------------------------|
--x-x-x-x-x-x-x-x-x-x-x-x-x-x-x-x-x-x-x-x-x-x-x-x-|
--7-7-7-7-7-7-7-7-7-7-7-7-7-7-7-7-7-7-7-7-7-7-7-7-|


  S S T T T T S S T T T T S S T T T T S S T T T T  
--------------------------------------------------|
--------------------------------------------------|
--------------------------------------------------|
--------------------------------------------------|
--x-x-x-x-x-x-x-x-x-x-x-x-x-x-x-x-x-x-x-x-x-x-x-x-|
--7-7-7-7-7-7-7-7-7-7-7-7-7-7-7-7-7-7-7-7-7-7-7-7-|


  S S T T T T S S T T T T S S T T T T S S T T T T  
--------------------------------------------------|
--------------------------------------------------|
--------------------------------------------------|
--------------------------------------------------|
--x-x-x-x-x-x-x-x-x-x-x-x-x-x-x-x-x-x-x-x-x-x-x-x-|
--7-7-7-7-7-7-7-7-7-7-7-7-7-7-7-7-7-7-7-7-7-7-7-7-|


  S S T T T T S S T T T T S S T T T T S S T T T T  
--------------------------------------------------|
--------------------------------------------------|
--------------------------------------------------|
--------------------------------------------------|
--x-x-x-x-x-x-x-x-x-x-x-x-x-x-x-x-x-x-x-x-x-x-x-x-|
--7-7-7-7-7-7-7-7-7-7-7-7-7-7-7-7-7-7-7-7-7-7-7-7-|


  S S T T T T S S T T T T S S T T T T S S T T T T  
--------------------------------------------------|
--------------------------------------------------|
--------------------------------------------------|
--------------------------------------------------|
--x-x-x-x-x-x-x-x-x-x-x-x-x-x-x-x-x-x-x-x-x-x-x-x-|
--7-7-7-7-7-7-7-7-7-7-7-7-6-6-6-6-6-6-6-6-6-6-6-6-|


  S S T T T T S S T T T T S S T T T T S S T T T T  
--------------------------------------------------|
--------------------------------------------------|
--------------------------------------------------|
--------------------------------------------------|
--x-x-x-x-x-x-x-x-x-x-x-x-x-x-x-x-x-x-x-x-x-x-x-x-|
--4-4-4-4-4-4-4-4-4-4-4-4-2-2-2-2-2-2-2-2-2-2-2-2-|


  S S T T T T S S T T T T S S T T T T S S T T T T  
--------------------------------------------------|
--------------------------------------------------|
--------------------------------------------------|
--------------------------------------------------|
--x-x-x-x-x-x-x-x-x-x-x-x-x-x-x-x-x-x-x-x-x-x-x-x-|
--0-0-0-0-0-0-0-0-0-0-0-0-2-2-2-2-2-2-2-2-2-2-2-2-|


  S S T T T T S S T T T T S S T T T T S S T T T T    W                 
--------------------------------------------------|-------------------|
--------------------------------------------------|-------------------|
--------------------------------------------------|-------------------|
--------------------------------------------------|-------------------|
--x-x-x-x-x-x-x-x-x-x-x-x-x-x-x-x-x-x-x-x-x-x-x-x-|-------------------|
--4-4-4-4-4-4-4-4-4-4-4-4-2-2-2-2-2-2-2-2-2-2-2-2-|-------------------|


                      W                   Q    E  E  Q    E  E               
-------------------|-------------------|------------------------|
-------------------|-------------------|------------------------|
-------------------|-------------------|-------4--6-------4--6--|
-------------------|-------------------|------------------------|
-------------------|-------------------|--2----------2----------|
-------------------|-------------------|------------------------|


                                H        H           H        H         
-----|-----|-----|-----|-----|--------------------|--------------------|
-----|-----|-----|-----|-----|--------------------|--------------------|
-----|-----|-----|-----|-----|--4--------6--------|--2--------4--------|
-----|-----|-----|-----|-----|--------------------|--------------------|
-----|-----|-----|-----|-----|--------------------|--------------------|
-----|-----|-----|-----|-----|--------------------|--------------------|


  H        H           S S T T T T S S T T T T S S T T T T S S T T T T  
--------------------|--------------------------------------------------|
--------------------|--------------------------------------------------|
--------------------|--------------------------------------------------|
--6--------8--------|--------------------------------------------------|
--------------------|--x-x-x-x-x-x-x-x-x-x-x-x-x-x-x-x-x-x-x-x-x-x-x-x-|
--------------------|--7-7-7-7-7-7-7-7-7-7-7-7-6-6-6-6-6-6-6-6-6-6-6-6-|


  S S T T T T S S T T T T S S T T T T S S T T T T  
--------------------------------------------------|
--------------------------------------------------|
--------------------------------------------------|
--------------------------------------------------|
--x-x-x-x-x-x-x-x-x-x-x-x-x-x-x-x-x-x-x-x-x-x-x-x-|
--4-4-4-4-4-4-4-4-4-4-4-4-2-2-2-2-2-2-2-2-2-2-2-2-|


  S S T T T T S S T T T T S S T T T T S S T T T T  
--------------------------------------------------|
--------------------------------------------------|
--------------------------------------------------|
--------------------------------------------------|
--x-x-x-x-x-x-x-x-x-x-x-x-x-x-x-x-x-x-x-x-x-x-x-x-|
--0-0-0-0-0-0-0-0-0-0-0-0-2-2-2-2-2-2-2-2-2-2-2-2-|


  S S T T T T S S T T T T S S T T T T S S T T T T    W                 
--------------------------------------------------|-------------------|
--------------------------------------------------|-------------------|
--------------------------------------------------|-------------------|
--------------------------------------------------|-------------------|
--x-x-x-x-x-x-x-x-x-x-x-x-x-x-x-x-x-x-x-x-x-x-x-x-|-------------------|
--4-4-4-4-4-4-4-4-4-4-4-4-2-2-2-2-2-2-2-2-2-2-2-2-|-------------------|


                      W                   Q    E  E  Q    E  E               
-------------------|-------------------|------------------------|
-------------------|-------------------|------------------------|
-------------------|-------------------|-------4--6-------4--6--|
-------------------|-------------------|------------------------|
-------------------|-------------------|--2----------2----------|
-------------------|-------------------|------------------------|


                                        Q    Q    Q    Q     
-----|-----|-----|-----|-----|-------|----------------------|
-----|-----|-----|-----|-----|-------|----------------------|
-----|-----|-----|-----|-----|-------|----------------------|
-----|-----|-----|-----|-----|-------|--6----4----1----2----|
-----|-----|-----|-----|-----|-------|----------------------|
-----|-----|-----|-----|-----|-------|----------------------|


  Q    H.              Q    Q    Q    E  E      E  E  E  E  E  E  E  E   
--------------------|------------------------|--------------------------|
--------------------|------------------------|--------------------------|
--------------------|------------------------|--------------------------|
--------------------|------------------------|--------------------------|
--4----2------------|--------------------2S--|--2--4--2--1--2--1--2--4--|
--------------------|--2----4----2-----------|--------------------------|


  Q    Q    Q    Q       Q    H.              Q    Q    Q    E  E    
----------------------|--------------------|------------------------|
----------------------|--------------------|------------------------|
----------------------|--------------------|------------------------|
--6----4----1----2----|--------------------|------------------------|
----------------------|--4----2------------|--------------------2S--|
----------------------|--------------------|--2----4----2-----------|


  E  E  E  E  E  E  E  E     Q    Q    Q    Q       Q    Q    Q    Q     
--------------------------|----------------------|----------------------|
--------------------------|----------------------|----------------------|
--------------------------|--7----6----4----6----|--4----3----4----6----|
--------------------------|----------------------|----------------------|
--2--4--2--1--2--1--2--4--|--5----4----2----4----|--2----1----2----4----|
--------------------------|----------------------|----------------------|


  Q    Q    Q    Q       E  E  E  E  E  E  E  E    
----------------------|---------------------------|
----------------------|---------------------------|
--7----6----4----6----|--4--3--4--3--4--3--4--3\--|
----------------------|---------------------------|
--5----4----2----4----|--2--1--2--1--2--1--2--1\--|
----------------------|---------------------------|


  S S T T T T S S T T T T S S T T T T S S T T T T  
--------------------------------------------------|
--------------------------------------------------|
--------------------------------------------------|
--------------------------------------------------|
--x-x-x-x-x-x-x-x-x-x-x-x-x-x-x-x-x-x-x-x-x-x-x-x-|
--7-7-7-7-7-7-7-7-7-7-7-7-7-7-7-7-7-7-7-7-7-7-7-7-|


  S S T T T T S S T T T T S S T T T T S S T T T T  
--------------------------------------------------|
--------------------------------------------------|
--------------------------------------------------|
--------------------------------------------------|
--x-x-x-x-x-x-x-x-x-x-x-x-x-x-x-x-x-x-x-x-x-x-x-x-|
--7-7-7-7-7-7-7-7-7-7-7-7-7-7-7-7-7-7-7-7-7-7-7-7-|


  S S T T T T S S T T T T S S T T T T S S T T T T  
--------------------------------------------------|
--------------------------------------------------|
--------------------------------------------------|
--------------------------------------------------|
--x-x-x-x-x-x-x-x-x-x-x-x-x-x-x-x-x-x-x-x-x-x-x-x-|
--7-7-7-7-7-7-7-7-7-7-7-7-6-6-6-6-6-6-6-6-6-6-6-6-|


  S S T T T T S S T T T T S S T T T T S S T T T T  
--------------------------------------------------|
--------------------------------------------------|
--------------------------------------------------|
--------------------------------------------------|
--x-x-x-x-x-x-x-x-x-x-x-x-x-x-x-x-x-x-x-x-x-x-x-x-|
--4-4-4-4-4-4-4-4-4-4-4-4-2-2-2-2-2-2-2-2-2-2-2-2-|


  S S T T T T S S T T T T S S T T T T S S T T T T  
--------------------------------------------------|
--------------------------------------------------|
--------------------------------------------------|
--------------------------------------------------|
--x-x-x-x-x-x-x-x-x-x-x-x-x-x-x-x-x-x-x-x-x-x-x-x-|
--0-0-0-0-0-0-0-0-0-0-0-0-2-2-2-2-2-2-2-2-2-2-2-2-|


  S S T T T T S S T T T T S S T T T T S S T T T T  
--------------------------------------------------|
--------------------------------------------------|
--------------------------------------------------|
--------------------------------------------------|
--x-x-x-x-x-x-x-x-x-x-x-x-x-x-x-x-x-x-x-x-x-x-x-x-|
--4-4-4-4-4-4-4-4-4-4-4-4-2-2-2-2-2-2-2-2-2-2-2-2-|


  S S T T T T S S T T T T S S T T T T S S T T T T  
--------------------------------------------------|
--------------------------------------------------|
--------------------------------------------------|
--------------------------------------------------|
--x-x-x-x-x-x-x-x-x-x-x-x-x-x-x-x-x-x-x-x-x-x-x-x-|
--7-7-7-7-7-7-7-7-7-7-7-7-6-6-6-6-6-6-6-6-6-6-6-6-|


  S S T T T T S S T T T T S S T T T T S S T T T T  
--------------------------------------------------|
--------------------------------------------------|
--------------------------------------------------|
--------------------------------------------------|
--x-x-x-x-x-x-x-x-x-x-x-x-x-x-x-x-x-x-x-x-x-x-x-x-|
--4-4-4-4-4-4-4-4-4-4-4-4-2-2-2-2-2-2-2-2-2-2-2-2-|


  S S T T T T S S T T T T S S T T T T S S T T T T  
--------------------------------------------------|
--------------------------------------------------|
--------------------------------------------------|
--------------------------------------------------|
--x-x-x-x-x-x-x-x-x-x-x-x-x-x-x-x-x-x-x-x-x-x-x-x-|
--0-0-0-0-0-0-0-0-0-0-0-0-2-2-2-2-2-2-2-2-2-2-2-2-|


  S S T T T T S S T T T T S S T T T T S S T T T T                           
--------------------------------------------------|
--------------------------------------------------|
--------------------------------------------------|
--------------------------------------------------|
--x-x-x-x-x-x-x-x-x-x-x-x-x-x-x-x-x-x-x-x-x-x-x-x-|
--4-4-4-4-4-4-4-4-4-4-4-4-2-2-2-2-2-2-2-2-2-2-2-2-|







Guitar II:


                                    S S S S S S S S S S S S S S S S  
E||-------|-------|-------|-------|----------------------------------|
B||-------|-------|-------|-------|----------------------------------|
G||-------|-------|-------|-------|--4-4-4-4-3-3-3-3-----------------|
D||-------|-------|-------|-------|--4-4-4-4-3-3-3-3-6-6-6-6-2-2-2-2-|
A||-------|-------|-------|-------|--2-2-2-2-1-1-1-1-6-6-6-6-2-2-2-2-|
E||-------|-------|-------|-------|------------------4-4-4-4-0-0-0-0-|


  S S S S S S S S S S S S S S S S    E  E  E  E  E  E  E  S S  
----------------------------------|---------------------------|
----------------------------------|---------------------------|
--4-4-4-4-3-3-3-3-----------------|---------------------------|
--4-4-4-4-3-3-3-3-6-6-6-6-2-2-2-2-|--4----------------------2-|
--2-2-2-2-1-1-1-1-6-6-6-6-2-2-2-2-|--2----------------------0-|
------------------4-4-4-4-0-0-0-0-|---------------------------|


  E  E  E  E  E  E  E  S S  
---------------------------|
---------------------------|
---------------------------|
--4----------------------2-|
--2----------------------0-|
---------------------------|


  Ladies and gentlemen of the underclass...                        
  E                                         E  E  E  E  E  E  S S  
------------------------------------------------------------------|
------------------------------------------------------------------|
------------------------------------------------------------------|
--4-------------------------------------------------------------2-|
--2-------------------------------------------------------------0-|
------------------------------------------------------------------|


  E  E  E  E  E  E  E  S S    E  E  E  E  E  E  E  S S  
---------------------------|---------------------------|
---------------------------|---------------------------|
---------------------------|---------------------------|
--4----------------------2-|--4----------------------2-|
--2----------------------0-|--2----------------------0-|
---------------------------|---------------------------|


  E  E  E  E  E  E  E  S S  
---------------------------|
---------------------------|
---------------------------|
--4----------------------2-|
--2----------------------0-|
---------------------------|


  I don't beleive in the politics...                        
  E                                  E  E  E  E  E  E  S S  
-----------------------------------------------------------|
-----------------------------------------------------------|
-----------------------------------------------------------|
--4------------------------------------------------------4-|
--2------------------------------------------------------4-|
---------------------------------------------------------2-|


  E  E  E  E  E  E  E  S S    E  E  E  E  E  E  E  S S  
---------------------------|---------------------------|
---------------------------|---------------------------|
-------------------------2-|---------------------------|
--6----------------------2-|--2----------------------4-|
--6----------------------0-|--2----------------------4-|
--4------------------------|--0----------------------2-|


                              And here we go...                                
  E  E  E  E  E  E  E  S S    S              S S S S S S S S S S S S S S S  
---------------------------|-----------------------------------------------|
---------------------------|-----------------------------------------------|
---------------------------|-----------------------------------------------|
--6------------------------|--2--------------2-2-2-2-2-2-2-2-2-2-2-2-2-2-2-|
--6------------------------|--2--------------2-2-2-2-2-2-2-2-2-2-2-2-2-2-2-|
--4------------------------|--0--------------0-0-0-0-0-0-0-0-0-0-0-0-0-0-0-|


  S S S S S S S S S S S S S S S S    S S S S S S S S S S S S S S S S  
----------------------------------|----------------------------------|
----------------------------------|----------------------------------|
----------------------------------|----------------------------------|
--6-6-6-6-6-6-6-6-4-4-4-4-4-4-4-4-|--2-2-2-2-2-2-2-2-2-2-2-2-2-2-2-2-|
--6-6-6-6-6-6-6-6-4-4-4-4-4-4-4-4-|--2-2-2-2-2-2-2-2-2-2-2-2-2-2-2-2-|
--4-4-4-4-4-4-4-4-2-2-2-2-2-2-2-2-|--0-0-0-0-0-0-0-0-0-0-0-0-0-0-0-0-|


  It' too late, there's no time...                                     
  W                                   S S S S S S S S S S S S S S S S  
-----------------------------------|----------------------------------|
-----------------------------------|----------------------------------|
-----------------------------------|----------------------------------|
-----------------------------------|--2-2-2-2-2-2-2-2-2-2-2-2-2-2-2-2-|
-----------------------------------|--2-2-2-2-2-2-2-2-2-2-2-2-2-2-2-2-|
-----------------------------------|--0-0-0-0-0-0-0-0-0-0-0-0-0-0-0-0-|


  S S S S S S S S S S S S S S S S   
-----------------------------------|
-----------------------------------|
-----------------------------------|
--4-4-4-4-4-4-4-4-4-4-4-4-4-4-4-4/-|
--4-4-4-4-4-4-4-4-4-4-4-4-4-4-4-4/-|
--2-2-2-2-2-2-2-2-2-2-2-2-2-2-2-2/-|


  March of the dogs, to beat of disilluson...                                
  S                                        S S S S S S S S S S S S S S S  
-------------------------------------------------------------------------|
-------------------------------------------------------------------------|
--4----------------------------------------4-4-4-3-3-3-3-----------------|
--4----------------------------------------4-4-4-3-3-3-3-6-6-6-6-2-2-2-2-|
--2----------------------------------------2-2-2-1-1-1-1-6-6-6-6-2-2-2-2-|
---------------------------------------------------------4-4-4-4-0-0-0-0-|


  S S S S S S S S S S S S S S S S    S S S S S S S S S S S S S S S S  
----------------------------------|----------------------------------|
----------------------------------|----------------------------------|
--4-4-4-4-3-3-3-3-----------------|--4-4-4-4-3-3-3-3-----------------|
--4-4-4-4-3-3-3-3-6-6-6-6-2-2-2-2-|--4-4-4-4-3-3-3-3-6-6-6-6-2-2-2-2-|
--2-2-2-2-1-1-1-1-6-6-6-6-2-2-2-2-|--2-2-2-2-1-1-1-1-6-6-6-6-2-2-2-2-|
------------------4-4-4-4-0-0-0-0-|------------------4-4-4-4-0-0-0-0-|


  S S S S S S S S S S S S S S S S    S S S S S S S S S S S S S S S S  
----------------------------------|----------------------------------|
----------------------------------|----------------------------------|
--4-4-4-4-3-3-3-3-----------------|----------------------------------|
--4-4-4-4-3-3-3-3-6-6-6-6-2-2-2-2-|--6---6---6---6---6---6---6---6---|
--2-2-2-2-1-1-1-1-6-6-6-6-2-2-2-2-|--6---6---6---6---6---6---6---6---|
------------------4-4-4-4-0-0-0-0-|--4---4---4---4---4---4---4---4---|


  S S S S S S S S S S S S S S S S    S S S S S S S S S S S S S S S S  
----------------------------------|----------------------------------|
----------------------------------|----------------------------------|
----------------------------------|----------------------------------|
--4---4---4---4---4---4---4---4---|--2---2---2---2---2---2---2---2---|
--4---4---4---4---4---4---4---4---|--2---2---2---2---2---2---2---2---|
--2---2---2---2---2---2---2---2---|--0---0---0---0---0---0---0---0---|


                                     It may be I'm a pessimist...            
  S S S S S S S S S S S S S S S S    H                                       
----------------------------------|
----------------------------------|
----------------------------------|
--4---4---4---4---4---4---4---4---|
--4---4---4---4---4---4---4---4---|
--2---2---2---2---2---2---2---2---|


       And here we go...                                
       S                 S S S S S S S S S S S S S S S  
----|--------------------------------------------------|
----|--------------------------------------------------|
----|--------------------------------------------------|
----|--2-----------------2-2-2-2-2-2-2-2-2-2-2-2-2-2-2-|
----|--2-----------------2-2-2-2-2-2-2-2-2-2-2-2-2-2-2-|
----|--0-----------------0-0-0-0-0-0-0-0-0-0-0-0-0-0-0-|


  S S S S S S S S S S S S S S S S    S S S S S S S S S S S S S S S S  
----------------------------------|----------------------------------|
----------------------------------|----------------------------------|
----------------------------------|----------------------------------|
--6-6-6-6-6-6-6-6-4-4-4-4-4-4-4-4-|--2-2-2-2-2-2-2-2-2-2-2-2-2-2-2-2-|
--6-6-6-6-6-6-6-6-4-4-4-4-4-4-4-4-|--2-2-2-2-2-2-2-2-2-2-2-2-2-2-2-2-|
--4-4-4-4-4-4-4-4-2-2-2-2-2-2-2-2-|--0-0-0-0-0-0-0-0-0-0-0-0-0-0-0-0-|


  It' too late, there's no time...                                     
  H                                   S S S S S S S S S S S S S S S S  
-----------------------------------|----------------------------------|
-----------------------------------|----------------------------------|
-----------------------------------|----------------------------------|
-----------------------------------|--2-2-2-2-2-2-2-2-2-2-2-2-2-2-2-2-|
-----------------------------------|--2-2-2-2-2-2-2-2-2-2-2-2-2-2-2-2-|
-----------------------------------|--0-0-0-0-0-0-0-0-0-0-0-0-0-0-0-0-|


  one, two, three, four  
  W                      
------------------------|
------------------------|
------------------------|
--L---------------------|
--L---------------------|
--L---------------------|


  March of the dogs, to beat of disilluson...                                
  S                                          S S S S S S S S S S S S S S S  
---------------------------------------------------------------------------|
---------------------------------------------------------------------------|
--4-------------------------------------------4-4-4-3-3-3-3----------------|
--4-------------------------------------------4-4-4-3-3-3-3-6-6-6-6-2-2-2-2|
--2-------------------------------------------2-2-2-1-1-1-1-6-6-6-6-2-2-2-2|
------------------------------------------------------------4-4-4-4-0-0-0-0|


  S S S S S S S S S S S S S S S S    S S S S S S S S S S S S S S S S  
----------------------------------|----------------------------------|
----------------------------------|----------------------------------|
--4-4-4-4-3-3-3-3-----------------|--4-4-4-4-4-4-4-4-4-4-4-4-4-4-4-4-|
--4-4-4-4-3-3-3-3-6-6-6-6-2-2-2-2-|--4-4-4-4-4-4-4-4-4-4-4-4-4-4-4-4-|
--2-2-2-2-1-1-1-1-6-6-6-6-2-2-2-2-|--2-2-2-2-2-2-2-2-2-2-2-2-2-2-2-2-|
------------------4-4-4-4-0-0-0-0-|----------------------------------|


  S S S S S S S S S S S S S S S S  
----------------------------------|
----------------------------------|
----------------------------------|
--6-6-6-6-6-6-6-6-2-2-2-2-2-2-2-2-|
--6-6-6-6-6-6-6-6-2-2-2-2-2-2-2-2-|
--4-4-4-4-4-4-4-4-0-0-0-0-0-0-0-0-|


  hey, hey, hey                                
  S             S S S S S S S S S S S S S S S  
----------------------------------------------|
----------------------------------------------|
--4-------------4-4-4-4-4-4-4-4-4-4-4-4-4-4-4-|
----------------------------------------------|
--2-------------2-2-2-2-2-2-2-2-2-2-2-2-2-2-2-|
----------------------------------------------|


  S S S S S S S S S S S S S S S S    S S S S S S S S S S S S S S S S  
----------------------------------|----------------------------------|
----------------------------------|----------------------------------|
--4-4-4-4-4-4-4-4-4-4-4-4-4-4-4-4-|----------------------------------|
----------------------------------|--6-6-6-6-6-6-6-6-6-6-6-6-6-6-6-6-|
--2-2-2-2-2-2-2-2-2-2-2-2-2-2-2-2-|--6-6-6-6-6-6-6-6-6-6-6-6-6-6-6-6-|
----------------------------------|--4-4-4-4-4-4-4-4-4-4-4-4-4-4-4-4-|


  S S S S S S S S S S S S S S S S    S S S S S S S S S S S S S S S S  
----------------------------------|----------------------------------|
----------------------------------|----------------------------------|
----------------------------------|--4-4-4-4-4-4-4-4-4-4-4-4-4-4-4-4-|
--2-2-2-2-2-2-2-2-2-2-2-2-2-2-2-2-|--4-4-4-4-4-4-4-4-4-4-4-4-4-4-4-4-|
--2-2-2-2-2-2-2-2-2-2-2-2-2-2-2-2-|--2-2-2-2-2-2-2-2-2-2-2-2-2-2-2-2-|
--0-0-0-0-0-0-0-0-0-0-0-0-0-0-0-0-|----------------------------------|


  S S S S S S S S S S S S S S S S    S S S S S S S S S S S S S S S S  
----------------------------------|----------------------------------|
----------------------------------|----------------------------------|
----------------------------------|----------------------------------|
--4-4-4-4-4-4-4-4-4-4-4-4-4-4-4-4-|--6-6-6-6-6-6-6-6-6-6-6-6-6-6-6-6-|
--4-4-4-4-4-4-4-4-4-4-4-4-4-4-4-4-|--6-6-6-6-6-6-6-6-6-6-6-6-6-6-6-6-|
--2-2-2-2-2-2-2-2-2-2-2-2-2-2-2-2-|--4-4-4-4-4-4-4-4-4-4-4-4-4-4-4-4-|


  S S S S S S S S S S S S S S S S    S S S S S S S S S S S S S S S S  
----------------------------------|----------------------------------|
----------------------------------|----------------------------------|
----------------------------------|--4-4-4-4-4-4-4-4-4-4-4-4-4-4-4-4-|
--2-2-2-2-2-2-2-2-2-2-2-2-2-2-2-2-|--4-4-4-4-4-4-4-4-4-4-4-4-4-4-4-4-|
--2-2-2-2-2-2-2-2-2-2-2-2-2-2-2-2-|--2-2-2-2-2-2-2-2-2-2-2-2-2-2-2-2-|
--0-0-0-0-0-0-0-0-0-0-0-0-0-0-0-0-|----------------------------------|


  S S S S S S S S S S S S S S S S  
----------------------------------|
----------------------------------|
----------------------------------|
--4-4-4-4-4-4-4-4-4-4-4-4-4-4-4-4-|
--4-4-4-4-4-4-4-4-4-4-4-4-4-4-4-4-|
--2-2-2-2-2-2-2-2-2-2-2-2-2-2-2-2-|


   S  S  S  S  S  S  S  S  S  S  S  S  S  S  S  S  
--------------------------------------------------|
--------------------------------------------------|
--12-12-12-12-12-12-12-12-12-12-12-12-12-12-12-12-|
--12-12-12-12-12-12-12-12-12-12-12-12-12-12-12-12-|
--10-10-10-10-10-10-10-10-10-10-10-10-10-10-10-10-|
--------------------------------------------------|


   S  S  S  S  S  S  S  S  S  S  S  S  S  S  S  S  
--------------------------------------------------|
--------------------------------------------------|
--11-11-11-11-11-11-11-11-11-11-11-11-11-11-11-11-|
--11-11-11-11-11-11-11-11-11-11-11-11-11-11-11-11-|
---9--9--9--9--9--9--9--9--9--9--9--9--9--9--9--9-|
--------------------------------------------------|


   S  S  S  S  S  S  S  S  S  S  S  S  S  S  S  S  
--------------------------------------------------|
--------------------------------------------------|
--12-12-12-12-12-12-12-12-12-12-12-12-12-12-12-12-|
--12-12-12-12-12-12-12-12-12-12-12-12-12-12-12-12-|
--10-10-10-10-10-10-10-10-10-10-10-10-10-10-10-10-|
--------------------------------------------------|


   S  S  S  S  S  S  S  S  S  S  S  S  S  S  S  S    E  E  E  E  E  E  E  S S  
--------------------------------------------------|------------------------|
--------------------------------------------------|------------------------|
--11-11-11-11-11-11-11-11-11-11-11-11-11-11-11-11-|------------------------|
--11-11-11-11-11-11-11-11-11-11-11-11-11-11-11-11-|--4-------------------2-|
---9--9--9--9--9--9--9--9--9--9--9--9--9--9--9--9-|--2-------------------0-|
--------------------------------------------------|------------------------|


                              Another president dead...                        
  E  E  E  E  E  E  E  S S    E                         E  E  E  E  E  E  S S  
---------------------------|-----------------------------------------------|
---------------------------|-----------------------------------------------|
---------------------------|-----------------------------------------------|
--4----------------------2-|--4------------------------------------------4-|
--2----------------------0-|--2------------------------------------------4-|
---------------------------|---------------------------------------------2-|


  E  E  E  E  E  E  E  S S    E  E  E  E  E  E  E  S S  
---------------------------|---------------------------|
---------------------------|---------------------------|
-------------------------2-|---------------------------|
--6----------------------2-|--2----------------------4-|
--6----------------------0-|--2----------------------4-|
--4------------------------|--0----------------------2-|


  E  E  E  E  E  E  E  S S    E  E  E  E  E  E  E  S S  
---------------------------|---------------------------|
---------------------------|---------------------------|
---------------------------|---------------------------|
--6------------------------|--4----------------------4-|
--6------------------------|--2----------------------4-|
--4------------------------|-------------------------2-|


  E  E  E  E  E  E  E  S S    E  E  E  E  E  E  E  S S  
---------------------------|---------------------------|
---------------------------|---------------------------|
-------------------------2-|---------------------------|
--6----------------------2-|--2----------------------4-|
--6----------------------0-|--2----------------------4-|
--4------------------------|--0----------------------2-|


                              la-la-la-la-la                           
                              |---------3---------|    |----3----|     
  E  E  E  E  E  E  E  S S    Q              Q    Q    Q    Q    Q     
---------------------------|------------------------------------------|
---------------------------|------------------------------------------|
---------------------------|--4--------------4----4-------------------|
--6------------------------|--4--------------4----4----6----6----6----|
--6------------------------|--2--------------2----2----6----6----6----|
--4------------------------|---------------------------4----4----4----|


  |----3----|    |----3----|       |----3----|    |----3----|     
  Q    Q    Q    Q    Q    Q       Q    Q    Q    Q    Q    Q     
--------------------------------|--------------------------------|
--------------------------------|--------------------------------|
--6----6----6-------------------|--4----4----4-------------------|
--6----6----6----4----4----4----|--4----4----4----6----6----6----|
--4----4----4----4----4----4----|--2----2----2----6----6----6----|
-----------------2----2----2----|-----------------4----4----4----|


  |----3----|    |----3----|       |----3----|    |----3----|     
  Q    Q    Q    Q    Q    Q       Q    Q    Q    Q    Q    Q     
--------------------------------|--------------------------------|
--------------------------------|--------------------------------|
--6----6----6-------------------|--4----4----4-------------------|
--6----6----6----4----4----4----|--4----4----4----6----6----6----|
--4----4----4----4----4----4----|--2----2----2----6----6----6----|
-----------------2----2----2----|-----------------4----4----4----|


  |----3----|    |----3----|       |----3----|    |----3----|     
  Q    Q    Q    Q    Q    Q       Q    Q    Q    Q    Q    Q     
--------------------------------|--------------------------------|
--------------------------------|--------------------------------|
--6----6----6-------------------|--4----4----4-------------------|
--6----6----6----4----4----4----|--4----4----4----6----6----6----|
--4----4----4----4----4----4----|--2----2----2----6----6----6----|
-----------------2----2----2----|-----------------4----4----4----|


  |----3----|    |----3----|       |----3----|    |----3----|     
  Q    Q    Q    Q    Q    Q       Q    Q    Q    Q    Q    Q     
--------------------------------|--------------------------------|
--------------------------------|--------------------------------|
--6----6----6-------------------|--4----4----4-------------------|
--6----6----6----4----4----4----|--4----4----4----6----6----6----|
--4----4----4----4----4----4----|--2----2----2----6----6----6----|
-----------------2----2----2----|-----------------4----4----4----|


  |----3----|    |----3----|                          
  Q    Q    Q    Q    Q    Q       W                  
--------------------------------|-------------------||
--------------------------------|-------------------||
--6----6----6-------------------|--4----------------||
--6----6----6----4----4----4----|--4----------------||
--4----4----4----4----4----4----|--2----------------||
-----------------2----2----2----|-------------------||




Duration Legend
---------------
W - whole
H - half
Q - quarter
E - 8th
S - 16th
T - 32nd
X - 64th
. - note dotted
|-n-|  - n-tuplets


Tablature Legend
----------------
L - tied note
x - dead note
g - grace note
(n) - ghost note
> - accentuded note
NH - natural harmonic
AH - artificial harmonic
TH - tapped harmonic
SH - semi harmonic
PH - pitch harmonic
h - hammer on
p - pull off
b - bend
br - bendRelease
pb - preBend
pbr - preBendRelease
brb - bendReleaseBend
\n/ - tremolo bar dip
\n - tremolo bar dive
-/n - tremolo bar Release up
/n\ - tremolo bar inverted dip
/n - tremolo bar return
-\n - tremolo bar Release down
S - shift slide
s - legato slide
/ -  slide into from below or out of upwards
\ -  slide into from above or out of downwards
~ - vibrato
W - wide vibrato
tr - trill
TP - tremolo picking
T - tapping
S - slap
P - pop
< - fade in
^ - brush up
v - brush down
Suggest correction
Creating personal tab
Creating personal tab
You can edit any tab online and save it as your Personal.

You can edit, replace or remove any tab part or add personal notes – all changes will be seen only by you.

Personal tabs can be accessed anytime from any device, even offline.
Learn more »
comments
print report bad tab
6 comments total. Showing first comments.
0 reply
mattayv2 40 Jul 10, 2007 11:29 PM

Dude this is awesome. But i think you should name what the parts are like the intro,verse,bridge,outro. But other than that AWESOME!!!

0 reply
Damone_player07 207 Jul 31, 2007 04:33 AM

Nice tab, but How can you do that on one guitar? They're a one guitar band these days.

0 reply
kiefermatot 10,367 Aug 04, 2007 02:10 PM

Tom from Gob plays with them live to fill in for the second guitar. I'll edit and stick in better labels, sorry about that.

Thanks guys.

guest
You may want to rate the tab now too:
select rating
Wanna post a correction for this tab? Suggest correction