Oops, an error
Loading. Please wait.

March Of The Dogs Acoustic tab

version 5
version 5
by Sum 41
8,020 views 1 this week
4 commentsread comments
1 2 3 4 5
x 8
add to favorites
×
Save as Personal and add changes to this tab that will be seen only by you. Learn more ›
×
You can save this tab as Personal to edit and correct it or add notes. All changes will be seen only by you. Learn more »
launch autoscroll
font size
0
reset
how to read this tab
guitar tuner
edit
Autoscroll
slow
fast
+/-
esc
set tempo
stop
Author
Difficulty
All right, this is how deryck exactly plays this song with his acoustic guitar, you have 
put your capo on the second fret.

intro:

--------------------------------------------------------|
--------------------------------------------------------|
-11-11-11-11--11-11-11-11--11-11-11-11--11-11-11-11-----|
-11-11-11-11--11-11-11-11--11-11-11-11--11-11-11-11-----|         x4
-9--9--9--9---8--8--8--8---x--x--x--x---x--x--x--x------|
---------------------------11-11-11-11--9--9--9--9------|


--------------------------------------------------------|
--------------------------------------------------------|
-11-11-11-11-11-11-11-11--------------------------------|
-11-11-11-11-11-11-11-11--------------------------------|
-9--9--9--9--9--9--9--9---------------------------------|
--------------------------------------------------------|


intro ( i don't believe in...)

--------------------------------------------------------------------------------|
--------------------------------------------------------------------------------|
-11-11-11-11--11-11-11-11--11-11-11-11--11-11-11-11--11-11-11-11--11-11-11-11---|
-11-11-11-11--11-11-11-11--11-11-11-11--11-11-11-11--11-11-11-11--11-11-11-11---|
-9--9--9--9---8--8--8--8---x--x--x--x---x--x--x--x---x--x--x--x---x--x--x--x----|
---------------------------11-11-11-11--9--9--9--9---x--x--x--x---9--9--9--9----|


--------------------------------------------------------|
--------------------------------------------------------|
-11-11-11-11--11-11-11-11-------------------------------|
-11-11-11-11--11-11-11-11-------------------------------|
-x--x--x--x---x--x--x--x--------------------------------|
-11-11-11-11--9--9--9--9--------------------------------|


Pre-Chorus (And here we go...)


----------------------------------------------------------|
----------------------------------------------------------|
--4-4-4-4--6-6-6-6--8-8-8-8--6-6-6-6--4-4-4-4--6-6-6-6----|
--4-4-4-4--6-6-6-6--8-8-8-8--6-6-6-6--4-4-4-4--6-6-6-6----|
--x-x-x-x--4-4-4-4--6-6-6-6--4-4-4-4--x-x-x-x--4-4-4-4----|
--x-x-x-x-----------------------------x-x-x-x-------------|

(it's too late, there's no doubt..)


--------------------------------------------------------|
--------------------------------------------------------|
-11-11--11-11--11-11--11-11--11-11-11-11--11-11-11-11---|
-11-11--11-11--11-11--11-11--11-11-11-11--11-11-11-11---|
-9--9---8--8---x--x---x--x---x--x--x--x---x--x--x--x----|
---------------11-11--9--9---x--x--x--x---9--9--9--9----|


Chorus (March of the dogs..)


--------------------------------------------------------|
--------------------------------------------------------|
-11-11--11-11--11-11--11-11-----------------------------|          x2
-11-11--8--8---11-11--11-11-----------------------------|
-9--9---8--8---x--x---x--x------------------------------|
---------------11-11--9--9------------------------------|

(white flag is down, send in the clowns)

--------------------------------------------------------|
--------------------------------------------------------|
-11-11-11-11--11-11-11-11--11-11-11-11--11-11-11-11-----|
-11-11-11-11--11-11-11-11--11-11-11-11--11-11-11-11-----|
-9--9--9--9---8--8--8--8---x--x--x--x---x--x--x--x------|
---------------------------11-11-11-11--9--9--9--9------|


Bridge


--------------------------------------------------------|
--------------------------------------------------------|
-11-11-11-11--11-11-11-11--11-11-11-11--11-11-11-11-----|
-11-11-11-11--11-11-11-11--11-11-11-11--11-11-11-11-----|
-9--9--9--9---x--x--x--x---x--x--x--x---x--x--x--x------|
--------------9--9--9--9---x--x--x--x---9--9--9--9------|


Verse
Pre-Chorus
Chorus


--------------------------------------------------------|
--------------------------------------------------------|
-11-11-11-11-11-11-11-11--------------------------------|
-11-11-11-11-11-11-11-11--------------------------------|
-9--9--9--9--9--9--9--9---------------------------------|
--------------------------------------------------------|


Solo (In the acoustic version, deryck doesn't play the solo, he just play the chords)


-6-6-6-6--0-0-0-0--0-0-0-0-----------------------------0-0-0-0--0-0-0-0--------------|
-7-7-7-7--0-0-0-0--0-0-0-0-----------------------------0-0-0-0--0-0-0-0--------------|
-8-8-8-8--4-4-4-4--0-0-0-0--6-6-6-6--7-7-8-8--8-8-8-8--4-4-4-4--0-0-0-0--6-6-6-6-----|
-8-8-8-8--4-4-4-4--4-4-4-4--6-6-6-6--7-7-8-8--8-8-8-8--4-4-4-4--4-4-4-4--6-6-6-6-----|
-6-6-6-6--0-0-0-0--4-4-4-4--4-4-4-4--5-5-5-5--6-6-6-6--0-0-0-0--4-4-4-4--4-4-4-4-----|
-6-6-6-6--0-0-0-0--0-0-0-0-----------------------------0-0-0-0--0-0-0-0--------------|


Chorus
Outro (Same as intro)

            
            
Suggest correction
Creating personal tab
Creating personal tab
You can edit any tab online and save it as your Personal.

You can edit, replace or remove any tab part or add personal notes – all changes will be seen only by you.

Personal tabs can be accessed anytime from any device, even offline.
Learn more »
comments
print report bad tab
4 comments total. Showing first comments.
0 reply
SundaySt 61 Oct 10, 2009 09:10 PM

In the Pre-Chorus, it should be like this.

----------------------------------------------------------|
----------------------------------------------------------|
--2-2-2-2--6-6-6-6--8-8-8-8--6-6-6-6--2-2-2-2--6-6-6-6----|
--2-2-2-2--6-6-6-6--8-8-8-8--6-6-6-6--2-2-2-2--6-6-6-6----|
--x-x-x-x--4-4-4-4--6-6-6-6--4-4-4-4--x-x-x-x--4-4-4-4----|
--x-x-x-x-----------------------------x-x-x-x-------------|

That should make the tab 5*'s :]

0 reply
SundaySt 61 Oct 10, 2009 09:13 PM

Sorry, here's the real correction. :P
In the Pre-Chorus, it should be like this.

----------------------------------------------------------|
----------------------------------------------------------|
--2-2-2-2--4-4-4-4--6-6-6-6--4-4-4-4--2-2-2-2--4-4-4-4----|
--2-2-2-2--4-4-4-4--6-6-6-6--4-4-4-4--2-2-2-2--4-4-4-4----|
--x-x-x-x--2-2-2-2--4-4-4-4--2-2-2-2--x-x-x-x--2-2-2-2----|
--x-x-x-x-----------------------------x-x-x-x-------------|

That should make the tab 5*'s :]

0 reply
SundaySt 61 Oct 10, 2009 09:16 PM

I FINALLY NOTICED WHAT'S WRONG. :))
The tab isn't relational to the 2nd fret capo. So that's why its like that.

guest
You may want to rate the tab now too:
select rating
Wanna post a correction for this tab? Suggest correction