Oops, an error
Loading. Please wait.

Moron bass

version 3
version 3

Whole song

Interactive

by Sum 41
1,751 views 3 this week
2 commentsread comments
1 2 3 4 5
x 8
add to favorites
×
Save as Personal and add changes to this tab that will be seen only by you. Learn more ›
×
You can save this tab as Personal to edit and correct it or add notes. All changes will be seen only by you. Learn more »
launch autoscroll
font size
0
reset
guitar tuner
edit
Autoscroll
slow
fast
+/-
esc
set tempo
stop
Artist: Sum 41
Song: Moron
Album: Chuck (2005)
Tabbed by: necriononguitar 
e-mail: tim.rathgen@gmx.de (no spam!)

REAL FANS SUPPORT BANDS BY PURCHASING THEIR CD'S!!!

. = Palm-Muted
~ = hold note
^ = vibrate
p = pull off
h = hammer on
/ = slide up
\ = slide down


Tuning: Drop D


Here's a vid of my brother covering the song (EASIER TO LEARN)
http://www.youtube.com/watch?v=Qh_f3ooPKbw&feature=channel


"""Intro"""  
G----------------------------------------|
D----------------------------------------|
A---------------------3-3-3-3------------| x2
E--22-2-2-2---5-5-5-5---------0-0-0-0----|

G----------------------------------------|
D----------------------------------------|
A---------------------3-3-3-3--5-5-5-5---|
E--22-2-2-2---5-5-5-5--------------------|

G----------------------------------------|
D-----5-----5-----5-----7----------------|
A--7-----5-----3-----5-------------------|
E----------------------------------------|


"""Verse"""  0:10
G-------------------------------------------------|
D-------------------------------------------------|
A-------------3-3---------7-7--5-5--3-3--5-5------|
E--2-2---5-5-------0-0----------------------------|

G-------------------------------------------------|
D---------------------------5-----5-----5-----7---|
A-------------3-3--5-5---7-----5-----3-----5------|
E--2-2---5-5--------------------------------------|


"""Chorus"""  0:21
G------------------------------------------------------|
D------------------------------------------------------|
A-------------3-3-33-33--------------------------------|
E--2-2-22-22-------------5-5-55-55--0-0-00-00----------|

G------------------------------------------------------|
D------------------------------------------------------|
A-------------3-3-33-33-------------55-33-55-77--------|
E--2-2-22-22-------------5-5-55-55---------------------|

G------------------------------------------------------|
D------------------------------------------------------|
A-------------3-3-33-33--------------------------------|
E--2-2-22-22-------------5-5-55-55--0-0-00-00----------|


G------------------------------------------------------|
D------------------------------------------------------|
A-------------3-3-33-33-------------55-33-55-77--------|
E--2-2-22-22-------------5-5-55-55---------------------|


"""Interlude"""  0:41
G--------------------------------------------------------------------|
D--------------------------------------------------------------------|
A--------------------------------------------------------------------|
E--2-2-2-x----2-2-2-2-2--3--2-2-2-x--2-2-2-2-2--3--------------------|


"""Verse 2"""  0:46
G--------------------------------------------------------------------|
D--------------------------------------------------------------------|
A------------3-3------------------3-3--5---------------3-3-----------|
E--2-2--5-5-------0-0---2-2--5-5---------5---2-2--5-5-------0-0------|

G--------------------------|
D--------------------------|
A------------3-3--5-5------|
E--2-2--5-5----------------|

G-------------------------------------------------------------------|
D-------------------------------------------------------------------|
A------------3-3--------7-7--5-5--3-3--5-5--------------3-3--5-5----|
E--2-2--5-5-------0-0-------------------------2-2--5-5--------------|

G-------------------------------|
D-----5-----5-----5-------------|
A--7-----5-----3-----5----------|
E-------------------------------|


"""Chorus"""  1:06
G------------------------------------------------------|
D------------------------------------------------------|
A-------------3-3-33-33--------------------------------|
E--2-2-22-22-------------5-5-55-55--0-0-00-00----------|

G------------------------------------------------------|
D------------------------------------------------------|
A-------------3-3-33-33-------------55-33-55-77--------|
E--2-2-22-22-------------5-5-55-55---------------------|

G------------------------------------------------------|
D------------------------------------------------------|
A-------------3-3-33-33--------------------------------|
E--2-2-22-22-------------5-5-55-55--0-0-00-00----------|


G------------------------------------------------------|
D------------------------------------------------------|
A-------------3-3-33-33------------/17-17-17-17--------|
E--2-2-22-22-------------5-5-55-55/--------------------|


"""Outro"""  1:27
G---------------------------------|
D-----5-----5-----5-----7---------|
A--7-----5-----3-----5------------| x4
E---------------------------------|

G-------------------------------|
D-------------------------------|
A-------------------------------|
E--2-2-2---22-2-2--3~-----------|


And thats it!  I Hope this helped, please rate, comment and correct me!

Cheers...
Suggest correction
Creating personal tab
Creating personal tab
You can edit any tab online and save it as your Personal.

You can edit, replace or remove any tab part or add personal notes – all changes will be seen only by you.

Personal tabs can be accessed anytime from any device, even offline.
Learn more »
comments
print report bad tab
2 comments total.
0 reply
RocknRollKing 10 May 25, 2010 07:58 AM

lol awesome tab!

0 reply
sh4rAkoN.41 10 Jun 16, 2010 06:03 AM

this is a perfect tab, thanks alot!

guest
You may want to rate the tab now too:
select rating
Wanna post a correction for this tab? Suggest correction