Oops, an error
Loading. Please wait.

Motivation Tab

version 2
27,725 views 12 this week
14 commentsread comments
1 2 3 4 5
x 13
add to favorites
launch autoscroll
font size
0
reset
how to read this tab
guitar tuner
×
Best way to learn
"Motivation"
Autoscroll
slow
fast
+/-
esc
set tempo
stop
sum 41-motivation
track 6
if the tab looks messed up, save it and view it in geneva

(beginning intro after the "drum solo")
e|--------------------------------------------|
B|--------------------------------------------|
G|--------------------------------------------|
D|-2-2---2-2---2-2---2-2----------------------|
A|-2-2---2-2---2-2---2-2----------------------|
E|-0-0---0-0---0-0---0-0--14/-----------------|

(real intro now)
e|--------------------------------------------------------------|
B|--------------------------------------------------------------|
G|--------------------------------------------------------------|
D|-2-2-2-6-7--7--2-2-2-6-7--7--2-2-2-6-7--7--9-9-9-6-7--7-------|
A|-2-2-2-6-7--7--2-2-2-6-7--7--2-2-2-6-7--7--9-9-9-6-7--7-------|
E|-0-0-0-4-5--5--0-0-0-4-5--5--0-0-0-4-5--5--7-7-7-4-5--5-------| 2x

[verse]
e|-----------------------------------------------|
B|-----------------------------------------------|
G|-----------------------------------------------| un-palm mute the third time play each
D|-2-2-2-2-6-6-6-6-7-7-7-7-9-9-9-9---------------|  chord
A|-2-2-2-2-6-6-6-6-7-7-7-7-9-9-9-9---------------|
E|-0-0-0-0-4-4-4-4-5-5-5-5-7-7-7-7---------------| 3x
    pm........................................................................

e|--------------------------------------------|
B|--------------------------------------------|
G|--------------------------------------------|
D|-2-2-2-2-6-6-6-6-7-9-11-13------------------|
A|-2-2-2-2-6-6-6-6-7-9-11-13------------------|
E|-0-0-0-0-4-4-4-4-5-7--9-11------------------|
pm........................................build up here to the chorus


E|-----------------------------------------------------------|
B|-----------------------------------------------------------|
G|-9--9--9--9-9-9--9--9--9-9---------------------------------|
D|-9--9--9--9-9-9--9--9--9-9-9--9--9--9-9-9--9--9--9-9-------|
A|-7--7--7--7-7-7--7--7--7-7-9--9--9--9-9-9--9--9--9-9-------|
E|---------------------------7--7--7--7-7-7--7--7--7-7-------|
"motivation, such an aggravation"

e|----------------------------------------------------------------------|
B|----------------------------------------------------------------------|
G|-9--9--9--9-9-9--9--9--9-9--------------------------------------------|
D|-9--9--9--9-9-9--9--9--9-9-7--7--7--7-7-9--9--9--9-9--7---9-----------|
A|-7--7--7--7-7-7--7--7--7-7-7--7--7--7-7-9--9--9--9-9--7---9-----------|
E|------------------------------5--5--5-5-5--7--7--7-7--7---5---7-------|

[intro 2x
]
[verse
]

[interlude
]
E|--------------------------------------------------------|
B|--------------------------------------------------------|
G|--------------------------------------------------------|
D|-2-6--9-9-9-7--3x-------------------4-----7-------------|
A|-2-6--9-9-9-7--3x-------------------4-----7-------------|
E|-0-4--7-7-7-5--3x-------------------2-----5-------------|
"nothing's new, everything's the same"      "no matter what you say"

e|--------------------------------------------|
B|--------------------------------------------|
G|--------------------------------------------|
D|-2-2-------------7--9-----------------------|
A|-2-2-5-4-2-------7--9-----------------------|
E|-0-0-------5-4-0-5--7-----------------------| 4x. the first time with just one

[guitar]
E|--------------------------------------|
B|--------------------------------------|
G|-6--4---------2--4-4-4-4-4-4-4-4------|
D|-6--4--2--6*--2--4-4-4-4-4-4-4-4------|
A|-4--2--2--2*--0--2-2-2-2-2-2-2-2------| *i know, it looks and sounds pretty
 weird, but its
E|--------0----------------------------  pretty close to the chord they use, i
think.
"cant depend, on doubt until the end"

E|---------------------------||4--4--4--4-2-4--4--4--4-2-4--4--4--4-2-4--4--4--4-
2
|
B|---------------------------||5--5--5--5-4-5--5--5--5-4-5--5--5--5-4-5--5--5--5-
4|
G|------4-4--------2-2-------||gtr 2 come in here on the 3rd time, singing start
the 5th time
D|-2-2--4-4---4-4--2-2-------||gtr 2 is clean () listen close. gtr 2 gets dist
and harmonized
A|-2-2--2-2---4-4--0-0-------||around the 8th time
E|-0-0--------2-2------------|

e|--------------------------------------|
B|---------------------------------------|
G|-2---4---------------------------------|
D|-2---4---------------------------------|
A|-0---2---------------------------------|
E|---------------------------------------|
"situation..."
Suggest correction
comments
print report bad tab
14 comments total. Showing first comments.
0 reply
hall420 30 Dec 14, 2001 07:00 PM

This is a good tab, and its right, but the ending part is all messed up. fix it!

0 reply
noser 10 Feb 19, 2002 07:00 PM

this is right... but what the hell is with the end part. great. now i have to figure out the end on my own. whats this world comeing. jesus. you fag

0 reply
noser 10 Feb 19, 2002 07:00 PM

an what the hell is geneva?

guest
You may want to rate the tab now too:
select rating
Wanna post a correction for this tab? Suggest correction