Oops, an error
Loading. Please wait.
We have an official Over My Head Better Off Dead tab made by UG professional guitarists. Check out the tab »
×
by Sum 41
1,457 views 3 this week
1 commentread comment
1 2 3 4 5
1 last vote to show rating
add to favorites
×
Save as Personal and add changes to this tab that will be seen only by you. Learn more ›
×
You can save this tab as Personal to edit and correct it or add notes. All changes will be seen only by you. Learn more »
launch autoscroll
font size
0
reset
guitar tuner
edit
Autoscroll
slow
fast
+/-
esc
set tempo
stop
Standard tuning.  I think this is mainly correct - it works for me anyway!
any probs email me avictaylor@hotmail.com
: means rest

guitar plays intro alone

G---------------------------------|
D---------------------------------|
A---------------------------------|
E-2-2-2-2-5-5-5-5-0-0-0-0-5-5-5-5-| X2

 guitar plays very first bit
G-----------------------|
D-----------------------|
A-10-10-12-9-9-10-7-7-7-|
E-----------------------|

interlude
G------------------------|
D------------------------|  not totally sure if this bit is all correct
A-7-7-:-7-9-9:-9-:-10-10-|
E------------------------|

pre chorus
G----------------|
D----------------|
A-10-10-10-10-10-|
E----------------|

chorus
G-------------------------------------------------|
D-------------------------------------------------|
A-7-7-7-7-7-7-3-3-3-3-3-3-------------5-5-5-5-5-5-|
E-------------------------5-5-5-5-5-5-------------|

G-----------------|
D-----------------|
A---3-3-----5-5-5-|
E-2-----5-5-------|

play verse and interlude and chorus

G---------------------------------|
D---------------------------------|
A---------3-3-3-3-----------------|
E-2-2-2-2---------5-5-5-5-4-4-4-4-|

G--------------------|
D--------------------|
A--------------------|
E-5-5----5-5-----5-5-|

G-------------------------------------------------------------|
D-------------------------------------------------------------|
A-10-10-10-10--9-9-9-9--12-12-12-12--10-10-10-10--14-14-14-14-|
E-------------------------------------------------------------|

G--------------------------------------|
D--------------------------------------|
A-10-10-10-10-9-9-10-10-12-12-41-14-14-|
E--------------------------------------|

play chorus and that's it!
Suggest correction
Creating personal tab
Creating personal tab
You can edit any tab online and save it as your Personal.

You can edit, replace or remove any tab part or add personal notes – all changes will be seen only by you.

Personal tabs can be accessed anytime from any device, even offline.
Learn more »
Give kudos to tab author, rate the tab!
1 2 3 4 5
comments
print report bad tab
1 comment total.
0 reply
3R!C87 80 Dec 29, 2002 07:00 PM

juts wanted to point out that there is a typo in this tab. in the last part u have a 41 written instead of 14. just thought u might have wanted to know. iam_canadian_ehh@hotmail.com (3R!C87)

guest
You may want to rate the tab now too:
select rating
Wanna post a correction for this tab? Suggest correction