Oops, an error
Loading. Please wait.
We have an official Over My Head Better Off Dead tab made by UG professional guitarists. Check out the tab »
×
by Sum 41
216 views 6 this week
no commentswrite comment
1 2 3 4 5
3 more votes to show rating
add to favorites
×
Save as Personal and add changes to this tab that will be seen only by you. Learn more ›
×
You can save this tab as Personal to edit and correct it or add notes. All changes will be seen only by you. Learn more »
launch autoscroll
font size
0
reset
how to read this tab
guitar tuner
edit
Autoscroll
slow
fast
+/-
esc
set tempo
stop
Author
-------------------------------------------------------------------------------
                         Over My Head Better Of Dead acoustic - Sum 41
-------------------------------------------------------------------------------

Tuning: standart

Soooo i took an few partts from ver 1, also.. i deleted an few and added an few
as you can see the tab.. well Enjoy... Got any questions Add your comments
-----------------------------------------------------------------------------------------
Sadly my email usally gets spamm and i cant really answer your questions lol..
Well enjoy..
-------------------------------------------------------------------------------------------
btw its not 100% right.. Sooo i dont give A FREAKING COOKIE!
This is how i play it with the acoustic version Video vvvvv
https://www.youtube.com/watch?v=hwp0PcMB-IE
^^^^^^^^^

Sooo far!!

---------------------------------------------------------------------------------------

Intro/Verse:
e|-----------------------------------------------------------|
B|-----------------------------------------------------------|
G|-----------------------------------------------------------|
D|--------5------9------9-------------7------------4---------|
A|--7--7-----7------10-----10---9--9-----9---5--5-----5------|
E|-----------------------------------------------------------|

Chorus
e|-----------------------------------------------------------|
B|-----------------------------------------------------------|
G|-----------5-----------------------------------------------|
D|---2-------5-------5-------5-------------------------------|
A|---2-(4x)--3-(4x)--5-(4x)--5-(4x)--------------------------|
E|---0---------------3-------7-------------------------------|

Pre-Chorus:
e|---------------------------------------------------------------------------------|
B|---------------------------------------------------------------------------------|
G|---------------------------------------------------------------------------------|
D|------2------2------4-----4--------5-----9-----9----------5-----5--9---9---------|
A|--3-3---3-3---3--5-5---5-5-5--7--7--7------7-----7----7-7---7-7------7---7-------|
E|---------------------------------------------------------------------------------|


e|-----------------------------------------------------------------------------------|
B|-----------------------------------------------------------------------------------|
G|-----------------------------------------------------------------------------------|
D|------2------2------4-----4-----5--------------------------------------------------|
A|--3-3---3-3---3--5-5---5-5-5----7--------------------------------------------------|
E|--------------------------------0--------------------------------------------------|


Chorus thinggy:
e|--------------------------------------------------------------------------------|
B|--------------------------------------------------------------------------------|
G|-9-12-11-12---------9-12-11-9---------------------------------------------------|
D|-x-x--x--x----------x-x--x--x---------------------------------------------------|
A|-7-10-9--10---------7-10-9--7---------------------------------------------------|
E|-x-x--x--x----------x-x--x--x---------------------------------------------------|

Bridge Almost like chorus but an differentt ryhm.
e|-----------------------------------------------------------------------------------|
B|-----------------------------------------------------------------------------------|
G|--0--------------------5-----------------0-------------------0---------------------|
D|--2--------------------5-----------------5-------------------5---------------------|
A|--2--------------------3-----------------5-------------------5---------------------|
E|--0--------------------0-----------------3-------------------7---------------------|
   this came to long before!              those who suffer more!

e|--------------------------------------------------------------------------------|
B|--------------------------------------------------------------------------------|
G|-0----------------------5----------------0--------------------0---------x-x-x-x-|
D|-2----------------------5----------------5--------------------5---------x-x-x-x-|
A|-2----------------------3----------------5--------------------5---------x-x-x-x-|
E|-0----------------------0----------------3--------------------7---------x-x-x-x-|
 am Tooo wake for this to be!          TO BEEE A  NIGGGHHTT MAREE!!!      ^ v ^ v

e|-----------------------------------------------------------------------------------|
B|-----------------------------------------------------------------------------------|
G|-0---------------------5----------------0--------------------0---------------------|
D|-2---------------------3----------------5--------------------5---------------------|
A|-2---------------------3----------------5--------------------5---------------------|
E|-0---------------------0----------------3--------------------7---------------------|
 WHats with my disgrace!!!                i lost the human race!

e|-----------------------------------------------------------------------------|
B|-----------------------------------------------------------------------------|
G|--0------------5-------------------------------------------------------------|
D|--2------------3----------------5-5-5-3--------------------------------------|
A|--2------------3----------------3-5-5-3---Play around with it till you-------|
E|--0------------0----------------3-3-3-3---------get it-----------------------|
    no whats plans to blow up in there face!

solo/Riff or w.e
e|-----------------------------------------------------------------------------|
B|-----------------------------------------------------------------------------|
G|-12-11-14-12-16-12-----11-12-14-16-------------------------------------------|
D|-x--x--x--x--x--x------x--x--x--x--------------------------------------------|
A|-10-9--12-10-14-10-----9--10-12-14-------------------------------------------|
E|-x--x--x--x--x--x------x--x--x--x--------------------------------------------|
^^^^
Play around with that/ also that last for notes are for one strokes only lol listen to the song
and youll get it...


Intro/verse
Chorus
Intro/verse
Pre-Chorus
Chorus
Cnorus Thinggy
Intro/verse
Pre-chorus
Chorus
Bridge
Solo/riff
Chorus!
Chorus But way different ryhm Wel yeahh :D yur done learning just work on it..

            
            
Suggest correction
Creating personal tab
Creating personal tab
You can edit any tab online and save it as your Personal.

You can edit, replace or remove any tab part or add personal notes – all changes will be seen only by you.

Personal tabs can be accessed anytime from any device, even offline.
Learn more »
Give kudos to tab author, rate the tab!
1 2 3 4 5
comments
print report bad tab
guest
You may want to rate the tab now too:
select rating
Wanna post a correction for this tab? Suggest correction