Oops, an error
Loading. Please wait.

Pieces Tab

version 2
177,852 views 114 this week
3 commentsread comments
1 2 3 4 5
x 22
add to favorites
launch autoscroll
font size
0
reset
how to read this tab
guitar tuner
Autoscroll
slow
fast
+/-
esc
set tempo
stop
Help us to improve Ultimate-Guitar.com Take our survey!
×
/\/\/\/\/\/\/\/\/\/\/\/\/\/\/\/\/\/\/\/\/\/\/\/\/\/\/\/\/\/\/\/\/\/\/

Song   : Pieces
Artist : Sum 41
Album  : Chuck (2004)
Tabber : Trison Boyes

/\/\/\/\/\/\/\/\/\/\/\/\/\/\/\/\/\/\/\/\/\/\/\/\/\/\/\/\/\/\/\/\/\/\/

Hey everyone, here's a simple tab for a excellent song on
the latest CD by Sum 41.  Enjoy!  I don't have two guitarists to see
how it sounds but it looks fairly accurate.

/\/\/\/\/\/\/\/\/\/\/\/\/\/\/\/\/\/\/\/\/\/\/\/\/\/\/\/\/\/\/\/\/\/\/

Droped D Tuning

The strumming is simple enough to find on your own, plus it's a
pain to tab out. So I'll just give you the chords in order.

If your band wants to do this song, the singer would play
guitar 1.  I personally don't have a second guitar player
in my band, so I kinda combine the two guitar parts, but that's
not tabbed here.

/\/\/\/\/\/\/\/\/\/\/\/\/\/\/\/\/\/\/\/\/\/\/\/\/\/\/\/\/\/\/\/\/\/\/

 *KEY*

~ hold
\ slide down

/\/\/\/\/\/\/\/\/\/\/\/\/\/\/\/\/\/\/\/\/\/\/\/\/\/\/\/\/\/\/\/\/\/\/
 ___________________
|                   |
|     Guitar 1      | (This guy gets the easy job)
| slightly ditorted |
|___________________|


[Intro]

and first verse       
e|-----5------------|               
B|-----6------------|               
G|-----7------------| x3           
D|-----7---8\-3--2--|                
A|-----5---8\-3--3--|                 
D|---0~~---8\-3--2--|          


[Chorus]

e|-----------|-----||-----|     
B|-----------|-----||-----|         
G|--3--------|-x2--||--3--|          
D|--3--3--2--|-end-||--3--|         
A|--1--3--3--|-on--||--1--|        
D|-----3--2--|-----||-----|              


[Verse]

e|--------------|             
B|--------------|              
G|-----3--------|  x3        
D|--0--3--3--2--|              
A|--0--1--3--3--|             
D|--0-----3--2--|       


[Chorus]
                         
e|-----------|-----||-----|     
B|-----------|-----||-----|         
G|--3--------|-x2--||--3--|          
D|--3--3--2--|-end-||--3--|         
A|--1--3--3--|-on--||--1--|        
D|-----3--2--|-----||-----|
       

[Pre-Solo]

e|-----------|  
B|-----------|    
G|-----3--5--| x2
D|--3--3--5--|
A|--3--1--3--|
D|--3--------|


[Solo]

(kick up the distortion here)

e|--------------|-----||-----|
B|--------------|-----||-----|    
G|--7--5--3-----|-x2--||--6--| x2
D|--7--5--3--3--|-end-||--6--|
A|--5--3--1--3--|-on--||--4--|
D|-----------3--|-----||-----|


[Verse]

e|--------------|             
B|--------------|              
G|-----3--------|  x3        
D|--0--3--3--2--|              
A|--0--1--3--3--|             
D|--0-----3--2--|       


[Chorus]
                         
e|-----------|-----||-----|     
B|-----------|-----||-----|         
G|--3--------|-x2--||--3--|          
D|--3--3--2--|-end-||--3--|         
A|--1--3--3--|-on--||--1--|        
D|-----3--2--|-----||-----|

End the song on

e|------|             
B|------|              
G|------|            
D|--3~--|              
A|--3~--|             
D|--3~--|

 ___________________
|                   |
|      Guitar 2     |
| slightly ditorted |
|___________________|

 *Nothing for the intro and first verse*

 *First Chorus*

e|----5-----5-----5-----5-----5-----5-----3----3--|-----||--1--|
B|--6--6--6--6--6--6--6--6--6--6--6--5--5--5-5--5-|-----||--3--|
G|-5-5---5-5---5-5---5-5---5-5---5-5---5-5--5-5---|-x2--||--3--|
D|------------------------------------------------|-end-||-----|
A|------------------------------------------------|-on--||-----|
D|------------------------------------------------|-----||-----|


[Verse]

e|--5--6--5--3--|----|
B|--6--6--6--5--|----|
G|--5--5--5--5--|-x3-|
D|--------------|----|
A|--------------|----|
D|--------------|----|


[Chorus]

e|--6--5--8--|-----||--6--|
B|--6--6--5--|-----||--6--|
G|--5--5--5--|-x2--||--5--|
D|-----------|-end-||-----|
A|-----------|-on--||-----|
D|-----------|-----||-----|


[Pre-Solo]

e|--5--6--5--6--5--6--8--|----|
B|--6--6--6--6--6--6--6--|----|
G|--5--5--5--5--5--5--5--|-x2-|
D|-----------------------|----|
A|-----------------------|----|
D|-----------------------|----|


[Solo]

(kick up the distortion)
e|--------8--------8-------5-------5----|----|
B|--10---------8-------6---------6------|----|
G|-----10---10---9---9---7---7-5-----5--|-x2-|
D|--------------------------------------|----|
A|--------------------------------------|----|
D|--------------------------------------|----| 

[Verse]

(lower the distortion again)
e|--5--6--5--3--|----|
B|--6--6--6--5--|----|
G|--5--5--5--5--|-x3-|
D|--------------|----|
A|--------------|----|
D|--------------|----|


[Chorus]

e|--6--5--8--|-----||--6--|
B|--6--6--5--|-----||--6--|
G|--5--5--5--|-x2--||--5--|
D|-----------|-end-||-----|
A|-----------|-on--||-----|
D|-----------|-----||-----|

(mute the guitar when guitar 1 plays the last chord)

/\/\/\/\/\/\/\/\/\/\/\/\/\/\/\/\/\/\/\/\/\/\/\/\/\/\/\/\/\/\/\/\/\/\/
 
 *Legal Blah*

I reconize that this song was written and produced by Sum 41, and 
that all rights for this song belong to them.  All I ask for is a
little cridit if you use this tab for your own purposes,
because this took me quite a few hours to write out.

 *Questions, Comments, Hate Mail and Love Letters can be sent to:

  supershadow77@hotmail.com

  Thanks for using this tab and gave a great day (or night).

/\/\/\/\/\/\/\/\/\/\/\/\/\/\/\/\/\/\/\/\/\/\/\/\/\/\/\/\/\/\/\/\/\/\/
Suggest correction
comments
print report bad tab
3 comments total. show 1 bad comment
+2 reply
DarkSideLeader 82 Jun 25, 2006 09:22 PM

well finally sumone made a decent pieces tab, this is like 1/2 right.

pieces is played in drop d tunning and they dont use power chords until the pre solo

+1 reply
BLINKx182fan 10 Oct 03, 2008 01:17 AM

*SOLO* (kick up the distortion)

e|--------8--------8-------5-------5----|----|
B|--10---------8-------6---------6------|----|
G|-----10---10---9---9---7---7-5-----5--|-x2-|
D|--------------------------------------|----|
A|--------------------------------------|----|
D|--------------------------------------|----|

this part was hard to figure out!
i like the tab. but it off on sum parts!

nice job tho! :)

guest
You may want to rate the tab now too:
select rating
Wanna post a correction for this tab? Suggest correction