Oops, an error
Loading. Please wait.
We have an official Pieces tab made by UG professional guitarists. Check out the tab »
×
by Sum 41
18,925 views 9 this week
6 commentsread comments
1 2 3 4 5
x 12
add to favorites
×
Save as Personal and add changes to this tab that will be seen only by you. Learn more ›
×
You can save this tab as Personal to edit and correct it or add notes. All changes will be seen only by you. Learn more »
launch autoscroll
font size
0
reset
guitar tuner
backing track
0:00
0:00
edit
Autoscroll
slow
fast
+/-
esc
set tempo
stop
Author
Artist: Sum 41
Title: Pieces
Album: Chuck

The bass part for this song is pretty easy. You just have to watch out for the quick
part where you use the D and G strings. Listen to the song and you should be able to
hear it.

Since some of the rhythms are a little weird, I've tried to separate notes where they
aren't as quick, and just the opposite when are. The rhythms at the end of each section
are usually during the last guitar chord of the section.

This is my first tab ever written, so sorry if it's kind of messy


1. Intro to verse
G|------------------------------------050------|
D|-----------------------------------3---3-----|
A|-55555555-11111111----------33333------------|
E|-------------------11111111------------------|

2. Verse
G|------------------------------------05-0-----|
D|-----------------------------------3---------|
A|-55555555-11111111/88888888\33333------------|
E|---------------------------------------------|


G|---------------------------------------------|
D|---------------------------------------------|
A|-55555555-11111111/88888888\33335---0--------|
E|----------------------------------1----------| (hold last note for an extra beat)

3. Chorus
G|---------------------------------------------|
D|---------------------------------------------|
A|-1111111111111111/88888888-33333333----------|
E|---------------------------------------------|


G|---------------------------------------------|
D|---------------------------------------------|
A|-1111111111111111/88888888-33333333-1~-------|
E|---------------------------------------------|

4. Bridge
G|---------------------------------------------|
D|---------------------------------------------|
A|----------11111111----------11111111---------|
E|-11111111----------11111111------------------|


G|------------------------------------------------------------------|
D|------------------------------------------------------------------|
A|-5555-3333-1111/8888-5555-3333-1111/8888--------------------------|
E|-----------------------------------------555555555555/17171717----|

Order:

Verse 1/Chorus (bass is silent)
Intro to verse
Verse
Chorus
Bridge
Verse
Chorus
Suggest correction
Creating personal tab
Creating personal tab
You can edit any tab online and save it as your Personal.

You can edit, replace or remove any tab part or add personal notes – all changes will be seen only by you.

Personal tabs can be accessed anytime from any device, even offline.
Learn more »
comments
print report bad tab
6 comments total. Showing first comments.
+1 reply
Mini-CC 41 Dec 17, 2007 02:58 PM

Great song great tab :) Keep up the work

-Aaen

0 reply
xunknownx 131 Dec 18, 2007 04:55 AM

good job(:

0 reply
Luke-182 52 Oct 24, 2009 08:51 AM

this might be right:

G|--------------------------------------5------|
D|-----------------------------------3^5--5^---|
A|-55555555-11111111----------33333------------|
E|-------------------11111111------------------|

instead of

G|------------------------------------050------|
D|-----------------------------------3---3-----|
A|-55555555-11111111----------33333------------|
E|-------------------11111111------------------|

guest
You may want to rate the tab now too:
select rating
Wanna post a correction for this tab? Suggest correction