Oops, an error
Loading. Please wait.

Screaming Bloody Murder Chords

version 1
version 1

Album

Whole song

Interactive

24,793 views 18 this week
2 commentsread comments
1 2 3 4 5
excellent!
x 15
add to favorites
launch autoscroll
font size
0
reset
transpose
0
reset
simplify chords
display chords
guitar tuner
Autoscroll
slow
fast
+/-
esc
set tempo
stop
Help us to improve Ultimate-Guitar.com Take our survey!
×
Sum 41
Screaming Bloody Murder
2011 Island Records
Submitted by: paramore_fans@yahoo.com

Tracklist:
01.) Reason To Believe
02.) Screaming Bloody Murder
03.) Scumfuck
04.) Time For You To Go
05.) Jessica Kill
06.) What Am I To Say
07.) Holy Image Of Lies
08.) Sick Of Everyone
09.) Happiness Machine
10.) Crash
11.) Blood In My Eyes
12.) Baby You Don't Wanna Know
13.) Back Where I Belong
14.) Exit Song

Bonus Track:
15.) We're The Same

____________________________________________

1.) Reason To Believe

Key: F

Tuning: Drop D

Chords used:
Dm -  000xxx
F -   333xxx
C -   x355xx
Bb -  888xxx
C/E - 232xxx
Am -  777xxx

Chords used: for Standard Tuning
Dm -  xx0231
F -   133211
C -   x32010
Bb -  x13331
C/E - 032xxx
Am -  x02210


Intro: Drumbeats, Dm-- x4

Dm-F-C-- x2


Verse 1:
Dm        F
I've been waiting for
              C
something for so long
just show me the answers
     Dm
that I want
F
Reason to believe
        C
that is so strong
but I don't think
that exists
(Repeat)



Chorus: Beat switch from 3/4 to Standard 4/4
Dm             Bb          F
  Yeah give me reason to believe
              C/E          Dm
this world is not a seat machine
     Bb              F
When everywhere is a dead
    C/E
and having an erection
Dm             Bb
  Yeah can you give
          F
me what I need?
        C/E
Or just sit and
         Dm
watch me bleed
            Bb      F
Cause after all you can't get
C/E
everything you want now
Dm    Bb            F  C/E
  But all I need is one
Dm       Bb             F C/E
thing to keep me moving on
Dm   Bb F C/E Dm Bb F C/E
Oh oh


Verse 2: Slower Beat Played on Piano
Dm                 Bb
  Everbody's got a secret
                        F    Am
Can you tell me what is mine?
                         Dm
Can you tell me what you find?
                     Bb
I'll tell you if you keep it
                 F
I promise not to lie
C
oeh oeh oeh oeh oeh
Bb                F
  Well I have the fears the pain
        C
and the tears I just can't hide
Bb            F
  It all dissapears cause
           C
everything passes with the time
        Bb(hold)            F(hold)
All you need is reason to believe

______________________________________________

2.) Screaming Bloody Murder

Key: Eb

Tuning: Standard EADGBe

Chords used:
Cm -  x35543
G -   320033
Gm -  355333
G# -  466544
Eb -  x68886
Bb -  x13331
Fm -  133111
G/B - x2x003
G#m - 466444


Verse 1: Piano
Cm        G       G#         Eb
  I'm not quite myself these days
         Gm         G#
Guess we all come undone
        Eb                Bb
Time to time in different ways
    Cm  G      G#      Eb
Well  I have myself to blame
        Gm          G#
Guess I don't understand
       Eb           Gm(hold)
I need help in many ways


Stevo: Drumbeats

Tom:
e|-----------------------------------------------------------------|
B|-----------------------------------------------------------------|
G|-----------------------------------------------------------------|
D|-6-5---5-----6-5---5-----6-5---5-----3-5-----5-6-----6-8-----5---| x3
A|-----3---3-3-----3---3-3-----3---3-3-----3-3-----3-3-----3-3---3-|
E|-----------------------------------------------------------------|

e|-------------------------------|
B|-------------------------------|
G|-------------------------------|
D|-6-5---5-----6-5---5-----6-5---|
A|-----3---3-3-----3---3-3-----3-|
E|-------------------------------|


Deryck: While doing Tom's Riff
        Eb                  Fm                Cm                G#
e|-----------------|-----------------|-----------------|-----------------|
B|-----------------|-----------------|-----------------|-----------------|
G|-8-8-8-8-8-8-8-8-|-----------------|-5-5-5-5-5-5-5-5-|-----------------|
D|-8-8-8-8-8-8-8-8-|-3-3-3-3-3-3-3-3-|-5-5-5-5-5-5-5-5-|-6-6-6-6-6-6-6-6-| x2
A|-6-6-6-6-6-6-6-6-|-3-3-3-3-3-3-3-3-|-3-3-3-3-3-3-3-3-|-6-6-6-6-6-6-6-6-|
E|-----------------|-1-1-1-1-1-1-1-1-|-----------------|-4-4-4-4-4-4-4-4-|

Cone:
        Eb                  Fm                Cm                G#
G|-----------------|-----------------|-----------------|-----------------|
D|-----------------|-----------------|-----------------|-----------------| x2
A|-6-6-6-6-6-6-6-6-|-----------------|-3-3-3-3-3-3-3-3-|-----------------|
E|-----------------|-1-1-1-1-1-1-1-1-|-----------------|-4-4-4-4-4-4-4-4-|


Verse 2:
Cm                     G#
  God's got a plan for me
Well I'm gonna
         Eb
tell you one thing
I don't got the
Gm        G/B    Cm
patientes or the time
G#   Eb  Gm Cm      G# Eb Gm
What can I  say I'm no an-gel
    Eb  Bb G# Gm
I'm not forsa-ken
    G/B
But I can bleed


Chorus 1:
Eb      Fm       Cm
Tear me open I believe
         G#            Eb
God will set you up to bleed
    Fm           Cm
And no one can deceive
        G#
What is meant to be and
Eb     Fm
Bloody murder we will scream


Verse 3:
Cm                           G#
  Well I guess it's time for me
                           Eb
Tell me what I'm left to believe in
Cause I don't know the
Gm      G/B    Cm
concept of the pain
  G#    Eb   Gm  Cm
I don't want the faith
     Gm   Eb   G#
I'll just lose it
Cm Bb  G#    Gm
I  can prove it
G/B
Watch me bleed


Chorus 2:
Eb      Fm       Cm
Tear me open I believe
         G#            Eb
God will set you up to bleed
    Fm           Cm
And no one can deceive
        G#
What is meant to be and
Eb     Fm              Cm
Bloody murder we will scream
         G#
God will set you up to
Eb      G/B
Tear me open


Interlude: Cm--Cm--Cm---|Gm-G#
Cm--Cm--Cm--G-----------|Gm-Fm
Cm--Cm--Cm--Eb----------|


Guitar Solo:

Deryck:
Eb--Gm--G/B--G#--Cm--Gm--G/B--G#-----|
Eb--Fm--Cm--G#m--Cm--G/B--Bb--G#-----|

Tom: Solo
e|-3-3-----3-3-----1-1-----1-1----1/3--1/3--3p1---|
B|-----4-4-----4-4-----3-3-----3----------------4-|
G|------------------------------------------------|
D|------------------------------------------------|
A|------------------------------------------------|
E|------------------------------------------------|

e|-3---1-----8----8----8-|
B|---------8----8----8---|
G|-----------------------|
D|-----------------------|
A|-----------------------|
E|-----------------------|

e|-11-11-11-11-10-10-10-10-8-8-8-8-------------|
B|---------------------------------11-11-11-11-|
G|---------------------------------------------|
D|---------------------------------------------|
A|---------------------------------------------|
E|---------------------------------------------|

e|-8-8-8-8----------------------------------------------------|
B|---------11-11-11-11-8-8-8-8-11-11-11-11--8--8------8-------|
G|-----------------------------------------------8-10----8----|
D|----------------------------------------------------------9-|
A|------------------------------------------------------------|
E|------------------------------------------------------------|

E|-8-8-8-8-8-8-8-8-8-8-8-8-8-8-8-8--|
B|-------------------------------------------|
G|-------------------------------------------|
D|-------------------------------------------|
A|-------------------------------------------|
E|-------------------------------------------|

E|-10-10-10-10-10-10-10-10-10-10-10-10-10-10-10-10--|
B|-----------------------------------------------------------|
G|-----------------------------------------------------------|
D|-----------------------------------------------------------|
A|-----------------------------------------------------------|
E|-----------------------------------------------------------|

E|-11-11-11-11-11-11-11-11-11-11-11-11-11-11-11-11-13-13-13-13--|
B|-----------------------------------------------------------------------|
G|-----------------------------------------------------------------------|
D|-----------------------------------------------------------------------|
A|-----------------------------------------------------------------------|
E|-----------------------------------------------------------------------|

E|-15-15-15-15-15-15-15-15-15-15-15-15-15-15-15-15--|
B|-----------------------------------------------------------|
G|-----------------------------------------------------------|
D|-----------------------------------------------------------|
A|-----------------------------------------------------------|
E|-----------------------------------------------------------|

E|-15h16p15h16p15h16p15h16p15h6p15h16-
B|------------------------------------|
G|------------------------------------|
D|------------------------------------|
A|------------------------------------|
E|------------------------------------|


Bridge:
      Cm Gm    Fm Eb   Cm Gm
Cause I'm  not gi-ving up
     Eb   Bb Eb
Will self control
     G/B
suffocate it to the bone?
    Cm Gm      Fm Eb Cm Gm
I'm my   worst e--ne-my
    Eb    Bb Eb
Who can't be save
G#       G/B
I'm just his disgrace


Chorus 3:
Eb      Fm       Cm
Tear me open I believe
         G#            Eb
God will set you up to bleed
    Fm           Cm
And no one can deceive
        G#
What is meant to be and
Eb     Fm              Cm
Bloody murder we will scream
         G#
God will set you up to
Eb      G/B Cm G/B G#(hold)
Tear me open


Outro: Piano
Cm      Gm        G#          Eb
  These days are strange it's true
              Gm
There's not a thing
             G#
that I would change
      Eb               Gm(hold)
No mistakes that I'd undo
_________________________________________

3.) Scumfuck

Key: G

Tuning: Standard EADGBe

Chords used:
G -    320033
B/Eb - x698xx
Em -   022000
C -    x32010
G/B -  x2x003
F -    133211
D/F# - 2x023x
Bm -   x24432


Intro: Acosutic Guitar Palm Mute
Em--C-G-D/F#

Em
Take he pictures of the wall
 C                    G        D/F#
erase the thoughts forget them all
    Em
the choice is yours to save yourself
    C                  G       D/F#
and ruined in hands of someone else
Em  C  G D/F#
ohh ohh
Em  C  G D/F#
ohh ohh
Em
Broken thoughts and alibis
C               G        D/F#
conscience disappears in time
  Em
A voice is all that I can show
    C               G       D/F#
and all that I have is your soul
Em  C  G D/F#
ohh ohh
Em  C  G D/F# Em-Em-Em-Em-Em(Dsitorted)
ohh ohh


Breakdown: Drumbeats, faster beat

Piano:
Em-C-G-B/Eb- x6


Verse 1:
      Em              C
Guess I don't have to feel
     G/B        B/Eb
Your deadbeat offering
     Em          C
Will burn in the gutter
       G/B          B/Eb
In the older in the grave
       Em
You've cursed your
C       G/B
silver spoon
   B/Eb     Em D/F# G B/Eb
so black To die


Chorus:
G                 Bm
  Well what can I say?
             Em
I guess it's obvious
    C                 G
you would end up this way
         Bm
When you live
            Em  F D/F# C G
amongst the dead
G             Bm
  The best of luck
       Em
As the one and only
C            G
Resident Scumfuck
         Bm        Em      F D/F# C G
A victim or just a tragedy?


Verse 2:
Em         Bm
I hear you talk
    C                 G
But I don't hear you speak
Em             Bm
You don't make sense
     C            G
Your mind is incomplete
Em
I can't believe all the
Bm
things that you say
    C               G
You just can't get enough
Em
We'll all be waiting
   Bm
in just for the day
C                  G
Guess your time is up!


(Repeat Chorus)


Verse 3: Silence
Em         B/Eb
All that I need
   C              G
Is time for me to breathe
Em           B/Eb
Dream little dreams
     C        G
That only I believe
Em         B/Eb
Now that I see
C          G
Beyond the light
Em          B/Eb
I know I'll be
     C    G(hold)
I'll be alright

_________________________________________

4.) Time For You To Go

Key: B, D

Tuning: Standard EADGBe

Chords used:
A -    x02220
B -    x24442
E -    022100
Bm -   x24432
D -    xx0232
E/G# - 476xxx
G -    320033


Intro: A-B--A-B--A-B--A-B--E--D-- x4


Verse 1:
Bm
Going in alone did my
D
time and now I'm done
     A    E/G#
It's so easy
        Bm
All the faces that I see don't
     D                  A
mean anything at all to me
           E/G#
But you've got me going now


Refrain 1:
E           B
  Out of my mind and it's
E             B   A
  a hell of a time, yeah


Chorus 1:
B               D
  I don't wanna say
             A
what I don't mean
        E
But I'm trying
                B
just to let you know
       D
That I don't wanna
        A
cause a scene
        E
But I'm sorry girl
it's time for you to go


Post chorus:
A-B--A-B--A-B--A-B--E--D-- x2


Verse 2:
     Bm
I'll tell you everything that
    D                    A
you know you never wanna hear
           E/G#
Cause it's true
    Bm
I'd give you all I've got
            D
but there's nothing
                     A
there that you could use
          E/G#
Oh you've got me going now



Refrain 2:
E           B
  Out of my mind and it's
E             B         A
  a hell of a time with you


(Repeat Chorus 1 twice)


Breakdown: B--B--B--A-E- x2


Guitar Solo: B--A-E- x3, A-E-A-E-

Bass Solo: B--D--A--E-- continue until Verse 3


Verse 3:
     Bm
I'll tell you everything that
    D                    A
you know you never wanna hear
           E
Cause it's true
    Bm
I'd give you all I've got
            D
but there's nothing
                     A
there that you could use
          E/G#(hold)
Oh you've got me going now


(Repeat Chorus 1)


Chorus 2:
B               D
  I don't wanna say
             A
what I don't mean
        E
But I'm trying
                B
just to let you know
       D
That I don't wanna
        A
cause a scene
        E
But I'm sorry girl
it's time for
sorry girl
it's time for
sorry girl
it's time for
you to go


Outro: A-B--A-B--A-B--A-B--E--D-- x2

B--B--B--B--B(hold)

_________________________________________

5.) Jessica Kill

Key: G

Tuning: Drop D

Chords used: Drop D only
Em -   222xxx
G -    555xxx
D -    000xxx
D/F# - 454xxx
B/Eb - 121xxx
Bm -   999xxx
C -    x355xx

Chords used: for Standard EADGBe
Em -   022000
G -    320033
D -    xx0232
D/F# - 2x023x
B/Eb - x698xx
Bm -   x24432
C -    x32010


Intro: Em-- x4

Guitar 2:
e|----------8--------|
B|-8---8-10---10---8-|
G|---9-----------9---|
D|-------------------| x8
A|-------------------|
D|-------------------|


Verse 1:
Em         G          D
Oh my love how do I explain
                           Em
how I've come to feel this way
      G             D
I'm addicted to the pain even
                    Em
more than words can say
      G
Every hit hurts like your
D                       Em
kiss like a needle to a vein
        G                D     (hold)
My last words are this begin I want you


Chorus 1:
Em       G              D
She said you don't even know
    G       D/F#   Em
How just so much I need it
G                D
How far will you go
       G     D/F#     Em
I just wanna feel you go
         G
and maybe so crazy
D          G B/Eb Em
  But I'm ok just pain me
G             D
Take it very slow
      G      D/F#   Em   Em Em Em
Cause I'm in love tonight


Verse 2:
Em             G          D
So now that it is come to this
                          Em
I'll be your dirty little thrill
        G                D
For the world I wouldn't miss
                             Em
Cause I just wanna feel your kiss
       G           D
Self inflicted masochist
                   Em
How could anyone resist
        G
My last words are
       D     (hold)
this begin I want you


Chorus 2:
Em       G              D
She said you don't even know
    G       D/F#   Em
How just so much I need it
G                D
How far will you go
       G     D/F#     Em
I just wanna feel you go
         G
and maybe so crazy
D          G B/Eb Em
  But I'm ok just pain me
G             D
Take it very slow
      G      D/F#
Cause I'm in love tonight


Bridge: Deryck speaks angily
Em
Show me the difference
  D/F#
between love and death
   G
Consider them both as
     D/F#
they take your breath
Em
Show me the difference
  D/F#
between love and death
   G
Consider them both as
     Bm        Em(fast palm mute)
they take your breath!!!


Guitar Solo: Em--C-Bm- x3, Em--G-Bm-


Verse 3:
    Em     D/F#       G     Bm
And all of this comes to an end
    Em   D/F#  G         Bm
But I cannot resist your death


Breakdown: Silence Piano
Em--G-D---


Chorus 3:
Em       G              D
She said you don't even know
    G       D/F#   Em
How just so much I need it
G                D
How far will you go
       G     D/F#     Em
I just wanna feel you go
         G
and maybe so crazy
D          G B/Eb Em
  But I'm ok just pain me
G             D
Take it very slow
      G      D/F#   Em-- D/F#
Cause I'm in love tonight


Chorus 4:
Em       G              D
She said you don't even know
    G       D/F#   Em
How just so much I need it
G                D
How far will you go
       G     D/F#     Em
I just wanna feel you go
         G
and maybe so crazy
D          G B/Eb Em
  But I'm ok just pain me
G             D
Take it very slow
      G      D/F#   Em--Em--Em--Em(hold)
Cause I'm in love tonight

____________________________________

6.) What Am I To Say

Key: E

Tuning: Standard EADGBe

Chords used:
E -    022100
B -    x24442
C#m -  x46654
A -    x02220
Am -   x02210
G#/C - x365xx
B/Eb - x698xx
G#m -  466444
G# -   466544


Intro: E--B/Eb-E----


Verse 1:
E              B/Eb
  What am I to say
                       C#m
I'm all wrapped up in apathy
    B                A        B/Eb
And I don't want to stay this way
E                         B/Eb
  There's nothing left to do
           C#m
Now that I am on to you
B             A           B/Eb
All I want to know is the truth


Refrain 1:
      C#m           A
And I don't want to go
      E           B
But I feel like I should
          C#m
Cause I'm falling
 A          E               B
apart And I might and I and I


Chorus 1:
              E
How could you be the
       B
better part of me
G#/C       C#m
When we're only half of
                A    Am
what we used to be today
          E
Could you see this
      B
isn't what we need
G#/C    C#m
And I'm leaving all
                    A
the pieces how they fell
       Am
So goodbye farewell


Post Chorus: E--


Verse 2:
E              B
  What am I to say
                 C#m
I still remember every day
    B              A    B/Eb
The memories don't fade away


Refrain 2:
       C#m        A
And it all falls apart
       E              B
in the shadows of the past
       C#m           A
It can seem to be so hard
         E                 B
But it's time the feelings passed


Chorus 2:
              E
How could you be the
       B
better part of me
G#/C       C#m
When we're only half of
                A    Am
what we used to be today
          E
Could you see this
      B
isn't what we need
G#/C    C#m
And I'm leaving all
                    A
the pieces how they fell
       Am          Am--
So goodbye farewell


Guitar Solo: E--G#m--C#m--A--E--G#m-B-A--Am--

Lead: (this part is tremolo picking)
e|--------------------------------------------------------------------------|
B|--------------------------------------------------------------------------|
G|--9999-8888-8/11-11-11-11-9999-11/1313131311-11-11-11-1313/14^14141414----|
D|--------------------------------------------------------------------------|
A|--------------------------------------------------------------------------|
E|--------------------------------------------------------------------------|
   BTW I separated the 11's with "-" so you won't confuse it with 1's
e|---------12--------12--------12--------12--------12--------14--------14---|
B|---9-10------9-10------9-10------9-10------9-10------9-10------9-10-------|
G|--------------------------------------------------------------------------|
D|--------------------------------------------------------------------------|
A|--------------------------------------------------------------------------|
E|--------------------------------------------------------------------------|

------14-14-14-14b--12~----------|
-9-10----------------------------|
---------------------------------|
---------------------------------|
---------------------------------|
---------------------------------|



Bridge:
    C#m                A
And pull your triggers now
         E
what you waiting for?
   G#             A
I stand accused myself
              E
Sometimes I'm wrong
    G#
God help me
    C#m             A
And here beneath my lie
          E
What am I praying for?
  G#               A
I don't believe in hell
           E        G#           (hold)
but I just might be there tonight


Chorus 3:
              E
How could you be the
       B
better part of me
G#/C       C#m
When we're only half of
                A    Am
what we used to be today
          E
Could you see this
      B
isn't what we need
G#/C    C#m
And I'm leaving all
                    A
the pieces how they fell
       Am
So goodbye farewell


Outro:
C#m--B-A                Am(hold)
        Goodbye farewell

______________________________________

7.) Holy Image Of Lies

Key: G

Tuning: Standard EADGBe

Chords used:
Em -   022000
C -    x32010
G -    320033
D -    xx0232
D/F# - 2x023x
B/Eb - x698xx
G/B -  x2x003
B -    x24442
A/C# - x476xx
Dm -   xx0231


Verse 1: Acoustic Guitar Until Refrain
Em
I don't believe I think
I'm falling asleep
          C
Is this beginning or ending
      B/Eb
am I stuck in a dream?
  Em            C
I don't want to know
       G          B/Eb
what I think I suppose
Em
Out of the light and
into this time of demise
              C
And there's a cross on
                  B/Eb
the hill the holy image lies
     Em        C
I've opened my mind but
     G              B/Eb
this dream is still real


Refrain:
Em                C
You don't need to worry
B/Eb     Em   C
I'm just fine I've
             G   D <--- Distorted Guitar
just lost my mind


Chorus:
Em  C G D/F#
Yeah
Em
Tell me it's
C        G
over cos I don't
       D/F#
feel a thing at all
   Em                C
No conscience that's no more
G               D
senses all have disappeared
   Em         C
Am I alright alive tonight
G           D/F#
Paranoid am I too late?
   Em         C
Am I alright alive tonight?
G                D/F#
Crash and fall into
                Em C G D/F#
this night with me


Tom: Guitar Solo at Chorus after "yeah"
e|-------15--------15------------------15--------15--------------|
B|-12h15-----12h15-----15p12-----12h15-----12h15-----------------|
G|---------------------------12----------------------11h12-------|
D|---------------------------------------------------------12h14-|
A|---------------------------------------------------------------|
E|---------------------------------------------------------------|


Verse 2: Beat slows down, Deryck played piano here
C          G    D          Em
Look in my eyes tell I'm alright
  C             G/B        D
I don't know if I'm still alive
   C           G
If this is goodbye
   D             Em
Forever's just a lie
C             G              D(hold)
Big enough to make you wanna try


Breakdown: Em(efffects) then drumbeats
Em-C-G/B-B/Eb- x4


Bridge:
   Em       C    G/B     B/Eb
In just one life how can we
Em    C        G/B     B/Eb
live enough to rest in peace
   Em       C
In just one life
(Just one life)
G/B     B/Eb
How can we
Em    C
live enough
   G/B     B/Eb  Em(hold) x8
to rest in peace now


Tom: Guitar Plucking Solo
e|-7-------|
B|---8-----|
G|-----9---|
D|-------9-| x16
A|---------|
E|---------|

Em D     C     B B/Eb
Oh oh oh oh oh oh


Outro:
Em         C            G
Here as I stand head in hand
    B        B/Eb  Em
and one hand on my heart
       C                G
As I depart it's not so hard
       B        B/Eb   Em
one to day to become a man
    C         A/C#        D
You had your start but it ends of
            Dm(hold)<-------------------Then the song Sick of Everyone enters
the thought you would give me mine

______________________________________

8.) Sick Of Everyone

Key: F

Tuning: Drop D

Chords used: Drop D only
Dm -  000xxx
Bb -  888xxx
F -   333xxx
C -   x355xx
Eb -  111xxx
A -   777xxx
Gm -  333xxx

Chords used: for Standard EADGBe
Dm -  xx0231
Bb -  x13331
F -   133211
C -   x32010
Eb -  x68886
A -   x02220
Gm -  355333


Intro: Dm--Bb-A-F--Gm-Dm--Bb-A-F--Gm-Eb- x4, Dm-- x2


Verse: Piano, My Chemical Romance vibe here
      Dm
While looking for the answers only
Bb                         Gm
questions come to mind cos i've been
                      A
lost in circles which now for quite
                Dm
some time and I don’t know how
                 Bb
I came here even how I got this far
    Gm
All I can tell you is my fate
   A
is written in the black stars well
Gm                      A(hold)
  What am I supposed to do


Refrain: Steveo's sick drumbeats
Dm                  Bb
Rest myself in this perfect hell
      F            A
of my own it’s the best
               Dm
ive ever known tell me
          Bb              F
something I don’t want to know
      A
Cos I can't believe its so
Gm                      A
  What am I supposed to do


Chorus:
    Dm                  Bb
Ive become sick of everyone know
                   Gm
and I don’t feel remorse
                      A
for the forgotten and I
don’t care at all
    Dm                  Bb
Ive become sick of everyone
now and i'm the
       Gm
patron voice of all the
             A
problems and I don’t
           Dm
care at all


Post chorus:
Dm(hold)  drumbeats
  Oh oh oh
Dm(hold)  drumbeats
  Oh oh oh


Bridge::
   Dm   Bb  F      A
Go Take me away im sick
   Dm   Bb    F
of everyone today
   A    Dm       Bb
im not ok but im fine
     F     A
this way I need no
Dm        Bb       F  A
change so take me away


Verse 2: Quiet, and Cone's Basslines
F(hold)
  Im coming down
Bb(hold)
  I fell apart
    A(hold)
its hard to keep together
         Gm(hold)
when you don’t know
where to start


(Repeat Chorus)


Outro: Dm--Bb-A-F--Gm-Dm--Bb-A-F--Gm-Eb- x4, Dm(hold)

__________________________________________

9.) Happiness Machine

Key: F

Tuning: Drop D

Chords used: Drop D only
Dm -   000xxx
Bb -   888xxx
F -    333xxx
C -    x355xx
A/C# - x476xx
Am -   777xxx
C/E -  232xxx

Chords used: for Standard EADGBe tuning
Dm -   xx0231
Bb -   x13331
F -    133211
C -    x32010
A/C# - x476xx
Am -   x02210
C/E -  032xxx


Intro: Dm-- x8, <-----------------------| Very fast plucking Dm Riff
Dm--C/E--F--A/C#-- x2, Dm--Dm--Dm--Dm---|
Dm-- x4


Verse 1:
Dm      Bb      F
Take my breath away
        A/C#
I don’t need
      Dm          Bb
it anyway cos I’m fine
           F
here in my own forgotten
A/C#              Dm   Bb
world where I can be myself
              F        A/C#
left with the hand I’m dealt
        Dm
And its hard to get a grip
          Bb
when your holding on to
something that you
F              A/C#
just let slip away


Chorus 1: Their old song 88 vibe here
Dm        C              Bb    F
All these thoughts stuck in my mind
 Dm      C          Bb      F
spinning round like endless time
Am             Dm
For once in my life I do want
   Bb       C              F
to feel something you call real
                   Am
I don’t think that I’ve got
                        Dm
time for these scars to heal
                     Bb
And the days just go by leaving
C               F
questions in my mind I
                   Am
guess ill find the answers
                   Dm(hold) A/C#
someday in another life


Verse 2:
Dm        Bb
Here with my old
F          A/C#
friend the silence
       Dm         Bb
in the end and it rings
             F
so loud that I cannot
   A/C#           Dm       Bb
pretend if I just close my eyes
          F        A/C#
And ask a thousand whys will
   Dm
it change or stay the
             Bb
same will it ever go away
    F                A/C#
the question still remains


Chorus 2:
Dm        C              Bb    F
All these thoughts stuck in my mind
 Dm      C          Bb      F
spinning round like endless time
Am             Dm
For once in my life I do want
   Bb       C              F
to feel something you call real
                   Am
I don’t think that I’ve got
                        Dm
time for these scars to heal
                     Bb
And the days just go by leaving
C               F
questions in my mind I
                    Am
guess i'll find the answers
someday in another life


Breakdown: Dm--C/E--F--A/C#-- x4, Dm--Dm--Dm--Dm--


Guitar Solo: Dm--Am--F--A/C#-- x2


Bridge:
Dm      Am         F   A/C#
Morning signs read desolation
Dm     Am      F    A/C#
on the road of desperations
Dm   C/E    F          A/C#
happiness machines I’m coming
Dm         C/E     F      A/C#(hold)
clean what can you do for me


Chorus 3:
Dm
  I do want
   Bb       C              F
to feel something you call real
                   Am
I don’t think that I’ve got
                        Dm
time for these scars to heal
                     Bb
And the days just go by leaving
C               F
questions in my mind I
                   Am
guess ill find the answers
    A/C#           Dm
someday in another life
Bb F  A/C#    Dm--Dm--Dm--Dm--Dm
Oh oh oh oh oh


Outro: Piano
Dm
oh oh oh oh oh
Bb
oh oh oh oh oh
F
oh oh oh oh oh
A/C#
oh oh oh oh oh
   Dm          Bb   C      F
So here now I stand at the end
     A/C#             Dm
of a dark road out of hell
           Bb      C   F
its not so hard as I depart
     A/C#               Dm(hold)
what way to become to a man

_____________________________________

10.) Crash

Key: C

Tuning: Standard EADGBe

Chords used:
C -  x32010
G -  320003
Am - x02210
F -  133211


Intro: C--G--Am--F--


Verse 1:
C       G
Hold me now cause I
Am                 F
couldn't even if I tried
     C    G
It's over now
  Am                    F
I guess it really is my time
  Am          G
I don't wanna go
         Am
but it's time I
               F
got to say goodbye
   C          G
So hold me me now
      Am
cause this will
                Am
be our last time


Interlude: C-G-Am-F-


Verse 2:
     C      G        Am
I'm slowing down and I don't
                 F
think that I can fight
  C        G
I know somehow you'll
Am                      F
find a way to live your life
  Am             G
Remember just to live every
Am                 F
day like it's your last
    C       G
And hold me now
        Am
cause I think it's
                   Am
time for me to pass


Chorus 1:
F                 G
  I don't want to die
             Am
I don't know why this kind
of fate was meant for me
F                G
  You got to be strong
            Am
got to move on it's not
how it was suppposed to be
F             G
  And what do I say
       Am
it was never supposed
                  G
to end up this way
F           G
  What do I have to do
         Am
was I supposed to
grow old with you?


Post Chorus:
F                      G
  But that ain't gonna happen
  F                 G(hold)
No that ain't gonna happen


Verse 3:
C       G
Hold me now
          Am
cause the time I've
              F
got's running out
   C       G
No tears allowed
     Am
even though we've
           F
become without
  Am           G
I just want to feel your
Am                F
head laying on my chest
   C       G
So hold me now
   Am                   Am
as I take my last breath


Chorus 2:
F                 G
  I don't want to die
             Am
I don't know why this kind
of fate was meant for me
F                G
  You got to be strong
            Am
got to move on it's not
how it was suppposed to be
F             G
  And what do I say
       Am
it was never supposed
                  G
to end up this way
F           G
  What do I have to do
         Am
was I supposed to
                  Am
grow old with you?


(Repeat Post Chorus)

________________________________

11.) Blood In My Eyes

Key: G

Tuning: Standard EADGBe

Chords used:
Em -  022000
Bm -  x24432
B -   x24442
C -   x32010
Cm -  x35543
Am -  x02210
G -   320033
D -   xx0232
Eb -  688886


Intro:

Clean: Em-- x4

Distorted: Em--Bm-C-Em--Bm-C-Bm-Am-Bm-G-Em---| x2
Em--Bm-C-Bm-Am-Bm-G-Em- x4, Em--Em-----------|


Verse 1: Beat switched from Standard 4/4 to 3/4
Em
I don't believe in
the secrets you keep
      B
But I do wanna know
    C       G            Bm
How do you sleep at night
        Em
And I'm over you
        C G
congratulations and
Em
Thank you for all the pain
         C
Cause it made it be
             Cm
so much more fun


Chorus:
                   Em
There's nothing to say now
    G
The feelings are
        D
already dead (they're dead)
    Am
And I don't believe
         Em
theres a way now
G
All that is said has
     D
been said (been said)
    Bm          D
I'm waiting for another
Em          G
day another way
          D
I don't believe that you can
Am                    Em
make all the pain go away
        G              D
So I'll leave it all behind but
    Bm           D
I'm leaving with blood in my eyes


Post chorus: Back to Standard 4/4 beat
Em--Bm-C-Bm-Am-Bm-G-Em- x2, Em--Em--


Verse 2: back to 3/4 beat
Em
Seen through the lines
while believing the lies
    B
For too long a time
       C          G          Bm
And I still don't know how I did
        Em
And now war's declared
            C      G
drawing the battle lines
    Em
And I can't see straight anymore
     C                       Cm(hold)
With all of this blood in my eyes


Breakdown: Same as Intro
Clean: Em-- x4


Drumbeats/Deryck's Solo: Em--

Cone's Bass solo: Bm--Em--

Tom's Guitar Solo: Bm--Eb-- x8, Em-- x8, Em(hold)


(Repeat Chorus)

_________________________________________

12.) Baby You Don't Wanna Know

Key: C

Tuning: Standard EADGBe

Chords used:
C -    x32010
D -    xx0232
A -    x02220
Am -   x02210
G -    320003
G/B -  x2x003
E/G# - 476xxx
D/F# - 2x023x


Intro: C-D--C-D--C-D--C-D--C-D-C-A- x6


Verse 1:
     C     D    C   D    C   D
Oh I don’t know what you want and
C D    C      A      C   D
I don’t wanna know I got you
C     D C   D    C D
where I want and I wont
C   A     G
let go so get your kicks out
                          C-D--C-D--C-D--
quick while you still got time
C     D C    D C A
That’s  fine
  C    D    C    D   C   D
I know just want you done
C D    C  D C A    C
I need no a-libi I hope
D      C   D    C  D
you’ve had your fun
C   D    C    D   C  A
you sure know how to lie but
G
you're just a drag and you
                C-D--C-D--C-D--
just ran out of time
     C      D     C D    C A C-D--C-D--
Well that’s quite alright
C-D--C-D-C-D-C-A-
well


Chorus 1:
     Am          C
well do want you want don’t
   G/B       D
be proud cos baby you
                      Am
don’t wanna know what im gonna
C                 G/B
do when your not around no
D
baby you don’t wanna know I
Am            C
got you right where I want and
  G                 D
I bet you gonna set you
          Am          C
off and I tell you anything
you want know but
G
baby you don’t
           D
wanna know baby you
don’t wanna know hey


Post chorus: C-D--C-D--C-D--C-D--C-D-C-A-C-D--C-D--C-D(hold)


Verse 2:
   C     D  C     D   C   D
It beats me black and blue
C   D C     D C   A    C   D
but I can’t resist I’m dragging
C D    C      D C    D
myself through  this kind
C  D C A         G
of masochist but I’ll be
                               C-D--C-D--C-D--
fine like this till the end of time
C D      C     D C    A
  That’s quite alright


Chorus 2:
     Am          C
well do want you want don’t
   G/B       D
be proud cos baby you
                      Am
don’t wanna know what im gonna
C                 G/B
do when your not around no
D
baby you don’t wanna know I
Am            C
got you right where I want and
  G                 D
I bet you gonna set you
          Am          C
off and I tell you anything
you want know but
G
baby you don’t
           D
wanna know baby you
don’t wanna know
Am C G D
       baby you don't wanna know
Am C G D
       baby you don't wanna know


Guitar Solo: Am--C--G--D-- x2


Bridge:
Am
   It's alright
E/G#
    I don't mind
G
    Cause you just
D/F#           F--------
might be outta time


Chorus 3:
     Am          C
well do want you want don’t
   G/B       D
be proud cos baby you
                      Am
don’t wanna know what im gonna
C                 G/B
do when your not around no
D
baby you don’t wanna know I
Am            C
got you right where I want and
  G                 D
I bet you gonna set you
          Am          C
off and I tell you anything
                  G(hold)
you want know but here
baby you don’t
wanna know baby you
don’t wanna know
Am C G D
       baby you don't wanna know
Am C G D                    Stevo's Syncopated drumbeats
       baby you don't wanna know
Am C      G  D
       no no baby you don't wanna know
Am C G D(hold)

_________________________________

13.) Back Where I Belong

Key: A

Tuning: Drop D

Chords used: Drop D only
F#m -  444xxx
E -    222xxx
A -    777xxx
Bm -   999xxx
D -    000xxx
C#m -  x466xx
C#/F - 343xxx

Chords used: for Standrd EADGBe
F#m -  244222
E -    022100
A -    x02220
Bm -   x24432
D -    xx0232
C#m -  x46654
C#/F - 143xxx


Intro:

Cone: F#m--E--A--Bm--


Tom: continue up to Verses
e|------------------------------------|
B|---------------12----------------14-|
G|-11h13h14--11------11---14---11-----|
D|------------------------------------| x4
A|------------------------------------|
D|------------------------------------|

Deryck: Idle until Verses


Verse 1:
F#m
   Got my back against
the wall tried
E
   to scream theres no sound
      A
at all I'm stuck with
                        Bm
nowhere to turn but I'm trying
F#m
    Trying hard not
             E
to be the one left
behind to become undone
A
   you cant stop what's
already begun
Bm                (hold)
Hear the down and out


Chorus 1:
F#m            A
I'm not giving up
            E
I won't let go
        D
cos I'm here till I'm
          F#m
done this time I've hard
 A               E
enough I'm on my own but
     D
I am back where I belong


Post Chorus 1:

Deryck:
   F#m    E     D     E
e|-----|-----|-----|-----|
B|-----|-----|-----|-----|
G|-----|-----|-----|-----|
D|-4-4-|-2-2-|-0-0-|-2-2-| x2
A|-4-4-|-2-2-|-0-0-|-2-2-|
D|-4-4-|-2-2-|-0-0-|-2-2-|

Cone:
   F#m    E     D     E
G|-----|-----|-----|-----|
D|-----|-----|-----|-----| x2
A|-----|-----|-----|-----|
D|-4-4-|-2-2-|-0-0-|-2-2-|

Tom:
e|-5---5---5---5p4-----5---5---5-|
B|-----------------5-------------|
G|-------------------------------|
D|-------------------------------|
A|-------------------------------|
D|-------------------------------|


Verse 2:
F#m
   You stand closer but your far
    E
away seems like its further
        A
everyday the feelings never
                Bm
go away but I'm trying
F#m
   At the end of a losing race
E
   time passes me without a trace
A
   trying hard just to find a
      Bm                 (hold)
place now that I'm on to you


(Repeat Chorus 1)


Post Chorus 2: F#m---F#m---F#m(hold)


Bridge: Beat Slowerd, Acosutic Guitar
F#m                     D
   Memories they hold a place just
                 C#m
in time to go to waste and
                  F#m   C#/F F#m C#/F
they all become replaced
F#m C#/F#m C#/F(hold)
ohh


Cool Riff:

Both Deryck and Tom:
    F#m      A       Bm     A    F#m   
E     D
e|-------|-------|-------|-----|-----|---|-------|
B|-------|-------|-------|-----|-----|---|-------|
G|-------|-------|-------|-----|-----|---|-------|
D|-------|-------|-------|-----|-----|---|-------| x8
A|-------|-0-0-0-|-2-2-2-|-0-0-|-----|---|-------|
D|-4-4-4-|-------|-------|-----|-4---|-2-|-0-0-0-|

Cone:
    F#m      A       Bm     A    F#m   
E     D
G|-------|-------|-------|-----|-----|---|-------|
D|-------|-------|-------|-----|-----|---|-------|
A|-------|-0-0-0-|-2-2-2-|-0-0-|-----|---|-------| x8
D|-4-4-4-|-------|-------|-----|-4---|-2-|-0-0-0-|


Chorus 2:
F#m            A
I'm not giving up
            E
I won't let go
              D
cos I'm where back
          (hold)
where I belong


(Repeat Chorus 1)


Outro: Repeat Cool Riff but only x4

End on F#m(Hold) and there's a creepy
sound to Enter the song Exit song

_____________________________________

14.) Exit Song

Key: A

Tuning: Drop D

Chords used: Drop D Only
F#m - 444xxx
E -   222xxx
D -   000xxx
A -   777xxx

Chords used: for Standard EADGBe
F#m - 244222
E -   022100
D -   xx0232
A -   x02220


Intro: F#m--


Verse:
F#m                        E
   There's nothing left to say
                        D
Cause you don't want to try
                     A   E
And I don't want the pain
F#m                        E
   There's nothing left to do
                      D
Well I don't want the lies
                       A   E
And you don't feel the same
                     D
It's time to let you go
                   A   E
And bow out of the game
                  D
And maybe we will find
                        A    E
The answers through the blame
                    D(hold)
It's time for me to go
                    A(hold) E(Hold) D(hold)
It's time for me to go      oh

______________________________________________

15.) We're The Same

Key: C

Tuning: Standard EADGBe

Chords used:
Am -   x02210
F -    133211
C -    x32010
G -    320003
G/B -  x2x003
D/F# - 2x023x
E -    022100


Intro:

Stevo's Drumbeats

Cone's Basslines: Am--C-G- x4, Am--G/B-C-G- x4

Deryck:
e|-5--5--5--5-|
B|-5--5--5--5-|
G|-5--5--5--5-|
D|-7--7--7--7-|
A|-7--7--7--7-|
E|-5--5--5--5-|

Tom:
e|-10-8-7--8-7-5--10--8--7---|
B|-------------------------8-|
G|---------------------------|
D|---------------------------|
A|---------------------------|
E|---------------------------|

e|-5-----7------8-------7-------5-----7-------8-------10------|
B|---5------5------5-------5------5------5-------5--------5---|
G|-----5------5------5-------5------5------5-------5--------5-|
D|------------------------------------------------------------|
A|------------------------------------------------------------|
E|------------------------------------------------------------|


Distortion: Am-G-D/F#-F- x4

Cone:
G|---------|---------|---------|---------|
D|---------|---------|---------|---------|
A|---------|---------|---------|---------|
E|-5-5-5-5-|-3-3-3-3-|-2-2-2-2-|-1-1-1-1-|

Deryck:
e|--------------------------|-------------------------|
B|--------------------------|-------------------------|
G|--------------------------|-------------------------|
D|--------------------------|----------0--2--3--2-0---|
A|-0--3--2--3--5---2-3--3-2-|-0--2--3---------------3-|
E|--------------------------|-------------------------|
              x3

Tom:
e|---------|---------|---------|---------|
B|---------|---------|---------|---------|
G|---------|---------|---------|---------|
D|-7-7-7-7-|-5-5-5-5-|-4-4-4-4-|-3-3-3-3-|
A|-7-7-7-7-|-5-5-5-5-|-5-5-5-5-|-3-3-3-3-|
E|-5-5-5-5-|-3-3-3-3-|-2-2-2-2-|-1-1-1-1-|



Verse 1: Cone's Basslines and Tom's 2nd Intro Riff at "You keep your head"
Am                        C    G
  I don't expect you to believe
Am
  Cause through those eyes of yours
    C                 G
you see just what you want to see
Am                             C     G
  Pieces of all your shattered dreams
Am
  If you keep your head so low
       C              G
you'll never see what you can be


Chorus:
              Am
(take a look around)
          G
We're the same in all
F             C
different ways
              Am
(take a look around)
          G
We're the same in all
F             E
different ways
               Am
Do you want to really
     G      D/F#          F
fight about differences tonight?
              Am
(take a look around)
          G
We're the same in
    F             C
all different ways
    E
But I I don't expect
you to believe


Post Chorus:
Am-G-D/F#-F- x2

Cone:
G|---------|---------|---------|---------|
D|---------|---------|---------|---------|
A|---------|---------|---------|---------|
E|-5-5-5-5-|-3-3-3-3-|-2-2-2-2-|-1-1-1-1-|

Deryck:
e|--------------------------|-------------------------|
B|--------------------------|-------------------------|
G|--------------------------|-------------------------|
D|--------------------------|-------------2--3--2-0---|
A|-0--3--2--3--5---2-3--3-2-|-0--3--2--3------------3-|
E|--------------------------|-------------------------|

Tom:
e|---------|---------|---------|---------|
B|---------|---------|---------|---------|
G|---------|---------|---------|---------|
D|-7-7-7-7-|-5-5-5-5-|-4-4-4-4-|-3-3-3-3-|
A|-7-7-7-7-|-5-5-5-5-|-5-5-5-5-|-3-3-3-3-|
E|-5-5-5-5-|-3-3-3-3-|-2-2-2-2-|-1-1-1-1-|


Verse 2:
Am
  Just when you think
               C  G
you're race is run
Am
  And you're left standing there
     C               G
with all your laces still undone
Am                             C  G
  It's like the end has just begun
Am
  And you feel so alone
    C                   G
but know you're not the only one


(Repeat Chorus)


Tom's Very Fast Guitar Solo: Am-F-C-E- x4, Am(Hold)--Am(hold)

Cone's Bass Solo: Am--x2


Verse 3: Almost Same as Vese 1, Slight changes in Chords and Deryck's voice
Am                        C    G E
  I don't expect you to believe
Am
  Cause through those eyes of yours
    C                 G       E
you see just what you want to see
Am                             C     G E
  Pieces of all your shattered dreams
Am
  If you keep your head so low
       C              E(hold)
you'll never see what you can be


(Repeat Chorus)


Outro:
Am-G-D/F#-F- x4

Cone:
G|---------|---------|---------|---------|
D|---------|---------|---------|---------|
A|---------|---------|---------|---------|
E|-5-5-5-5-|-3-3-3-3-|-2-2-2-2-|-1-1-1-1-|

Deryck:
e|--------------------------|-------------------------|
B|--------------------------|-------------------------|
G|--------------------------|-------------------------|
D|--------------------------|----------0--2--3--2-0---|
A|-0--3--2--3--5---2-3--3-2-|-0--2--3---------------3-|
E|--------------------------|-------------------------|
              x3

Tom:
e|---------|---------|---------|---------|
B|---------|---------|---------|---------|
G|---------|---------|---------|---------|
D|-7-7-7-7-|-5-5-5-5-|-4-4-4-4-|-3-3-3-3-|
A|-7-7-7-7-|-5-5-5-5-|-5-5-5-5-|-3-3-3-3-|
E|-5-5-5-5-|-3-3-3-3-|-2-2-2-2-|-1-1-1-1-|


E------, then End on Am(hold)
Suggest correction
comments
print report bad tab
2 comments total.
0 reply
esqew 10 wrote on April 24 2011, 01:25 am

I thought Tom wasn't on this album...?

+1 reply
jbdineen19 10 wrote on August 3 2013, 05:11 pm

Has anyone noticed on the first song it says
And having an erection
Instead of
every direction

guest
You may want to rate the tab now too:
select rating
Wanna post a correction for this tab? Suggest correction