Oops, an error
Loading. Please wait.
We have an official Screaming Bloody Murder tab made by UG professional guitarists. Check out the tab »
×
by Sum 41
286 views 1 this week
no commentswrite comment
1 2 3 4 5
3 more votes to show rating
add to favorites
×
Save as Personal and add changes to this tab that will be seen only by you. Learn more ›
×
You can save this tab as Personal to edit and correct it or add notes. All changes will be seen only by you. Learn more »
launch autoscroll
font size
0
reset
how to read this tab
guitar tuner
edit
Autoscroll
slow
fast
+/-
esc
set tempo
stop
Screaming Bloody Murder
-Sum 41


half step tuned down

Intro: 

eb|------------------------------------------------------------------------------------|
Bb|-5—-5-—5-—5-5-----------------------------------------------------------------------|
Gb|-6—-6—-6—-6-6—-5—-5-—5—-5-5—-6—-6-—6—-6-6—-1—-1—-1—-1-1-—5-—5-—5-—5-5—-6—-6—-6—-6-6-|
Db|-6—-6—-6—-6-6—-6-—6-—6-—6-6—-7—-7—-7—-7—7—-2—-2—-2—-2-2—-6—-6—-6-—6-6—-7—-7-—7-—7-7-|
Ab|-4—-4—-4—-4-4—-6—-6—-6—-6-6—-7—-7—-7—-7—7—-2-—2-—2—-2-2—-6—-6—-6—-6—6—-7—-7—-7—-7—7-|
Eb|---------------4--4--4--4-4--5--5--5--5-5--0--0--0--0-0--4--4--4--4-4--5--5--5--5-5-|
   1.                              2.
eb|----------------------------|------------------|
Bb|---------------4--4--4--4-4-|------------------|
Gb|-1—-1—-1—-1-1—-4-—4—-4—-4-4-|-1-—1-—1—-1-1—-5--|
Db|-2—-2-—2-—2—2—-4—-4—-4—-4-4-|-2—-2—-2—-2-2—-6--|
Ab|-2—-2—-2—-2-2—-2—-2—-2—-2—2-|-2—-2—-2—-2-2—-6--|
Eb|-0—-0-—0-—0-0---------------|-0--0--0--0-0--4--|

-live tom plays this while deryck plays the chords-
                      1.  2.
eb|------------------|---|---|
Bb|-14-13-10-9-7-5-5-|-7-|-4-|
Gb|------------------|---|---|
Db|------------------|---|---| x2(second time tremolo picking)
Ab|------------------|---|---|
Eb|------------------|---|---|

 I´m not quite myself these days
Guess we all come undone
Time to time in different ways
Well  I have myself to blame
Guess I don´t understand
I need help in many ways


Guitar 1:
eb|-----------------|-----------------|-----------------|-----------------|
Bb|-----------------|-----------------|-----------------|-----------------|
Gb|-----------------|-----------------|-----------------|-------4---------|
Db|-7-6---6-----7-6-|---6-----7-6---6-|-----4-6-----6-7-|-----7-------6---|  x2
Ab|-----4---4-4-----|-4---4-4-----4---|-4-4-----4-4-----|-4-4-----4-4---4-|
Eb|-----------------|-----------------|-----------------|-----------------|

Guitar 1:
|eb|-----------------|-----------------|-----------------|-----------------|
|Bb|-----------------|-----------------|-----------------|-----------------|
|Gb|-----------------|-----------------|-----------------|-------4---------|
|Db|-7-6---6-----7-6-|---6-----7-6---6-|-----4-6-----6-7-|-----7-------6---|
|Ab|-----4---4-4-----|-4---4-4-----4---|-4-4-----4-4-----|-4-4-----4-4---4-|
|Eb|-----------------|-----------------|-----------------|-----------------|
|
|Guitar 2:
|eb|-----------------|-----------------|-----------------|-----------------|
|Bb|-----------------|-----------------|-----------------|-----------------|
|Gb|-----------------|-----------------|-6-6-6-6-6-6-6-6-|-2-2-2-2-2-2-2-2-|
|Db|-2-2-2-2-2-2-2-2—|-4-4-4-4-4-4-4-4-|-6-6-6-6-6-6-6-6-|-2-2-2-2-2-2-2-2-|
|Ab|-2-2-2-2-2-2-2-2—|-4-4-4-4-4-4-4-4-|-4-4-4-4-4-4-4-4-|-0-0-0-0-0-0-0-0-|
|Eb|-0-0-0-0-0-0-0-0—|-2-2-2-2-2-2-2-2-|-----------------|-----------------|


|Guitar 1:
|eb|-----------------|-----------------|
|Bb|-----------------|-----------------|
|Gb|-----------------|-----------------|
|Db|-7-6---6-----7-6-|---6-----7-6---6\|
|Ab|-----4---4-4-----|-4---4-4-----4---|
|Eb|-----------------|-----------------|
|
|Guitar 2:
|eb|-----------------|-----------------|
|Bb|-----------------|-----------------|
|Gb|-----------------|---------------6\|
|Db|-2-2-2-2-2-2-2-2—|-4-4-4-4-4-4-4-6\|
|Ab|-2-2-2-2-2-2-2-2—|-4-4-4-4-4-4-4-4\|
|Eb|-0-0-0-0-0-0-0-0—|-2-2-2-2-2-2-2---|



Verse 1

(only bass)
Cm#                   G#
 God´s got a plan for me
                        E
Well I´m gonna tell you one thing

Guitar 1 comes in:
eb|-----------------------------------------------------------------|
Bb|-----------------------------------------------------------------|
Gb|---------------------------------6-6---6-------------------------|
Db|---------------------------------6-6---6-6-6-6-6-2-2---2-6-6-6-6-|
Ab|-6-6-4-4-3-3-------3-3-3-4-4-6-6-4-4---4-6-6-6-6-2-2---2-6-6-6-6-|
Eb|-------------4-4-4-----------------------4-4-4-4-0-0---0-4-4-4-4-|
    ...............................................................

eb|-----------------------------------------------------------------|
Bb|-----------------------------------------------------------------|
Gb|-6-6---6-2-2-2-2---------2-2-2-2-9-9---9-4-4-4-4-2-2---2---------|
Db|-6-6---6-2-2-2-2-2-2---2-2-2-2-2-9-9---9-4-4-4-4-2-2---2-6-6-6-6-|
Ab|-4-4---4-0-0-0-0-2-2---2-0-0-0-0-7-7---7-2-2-2-2-0-0---0-6-6-6-6-|
Eb|-----------------0-0---0---------------------------------4-4-4-4-|
    ...............................................................

eb|---------------------------------|
Bb|---------------------------------|
Gb|---------------------------------|
Db|---------------------------------|
Ab|-6-6-4-4-3-3-------3-3-3-4-4-6-6-|
Eb|-------------4-4-4---------------|

I don´t got the patience or the time  
What can I say 
I´m no angel
I´m fosaken
But I can bleed 


Chorus:
 
Guitar 1 and 2:
eb|-----------------------------------------------------------------|
Bb|-----------------------------------------------------------------|
Gb|---------------------------------6-6-6-6-6-6-6-6-2-2-2-2-2-2-2-2-|
Db|-2-2-2-2-2-2-2-2-4-4-4-4-4-4-4-4-6-6-6-6-6-6-6-6-2-2-2-2-2-2-2-2-|  x2
Ab|-2-2-2-2-2-2-2-2-4-4-4-4-4-4-4-4-4-4-4-4-4-4-4-4-0-0-0-0-0-0-0-0-|
Eb|-0-0-0-0-0-0-0-0-2-2-2-2-2-2-2-2---------------------------------|

Tear me open I belive 
Good will set you up to bleed
And no one can decive
What is meant to be and

eb|---------------------------------|
Bb|---------------------------------|
Gb|---------------------------------|
Db|-2-2-2-2-2-2-2-2-4-4-4-4-4-4-4-4-|
Ab|-2-2-2-2-2-2-2-2-4-4-4-4-4-4-4-4-|
Eb|-0-0-0-0-0-0-0-0-2-2-2-2-2-2-2-2-|

Bloody murder we will scream




Verse:

Guitar 1:
eb|------------------------------------------------------------------------|
Bb|------------------------------------------------------------------------|
Gb|-6-6---6--6-6-6-6--6-6---6--6-6-6-6--2-2---2--2-2-2-2--2-2---2--2-2-2-2-|
Db|-6-6---6--6-6-6-6--6-6---6--6-6-6-6--2-2---2--2-2-2-2--2-2---2--2-2-2-2-|
Ab|-4-4---4--4-4-4-4--4-4---4--4-4-4-4--0-0---0--0-0-0-0--0-0---0--0-0-0-0-|
Eb|------------------------------------------------------------------------|
    ......................................................................

eb|---------------------------------------------------------------------|
Bb|---------------------------------------------------------------------|
Gb|-9-9---9--9-9-9-9--9-9----9--9-9-9-9---------------------------------|
Db|-9-9---9--9-9-9-9--9-9----9--9-9-9-9---------------------------------|
Ab|-7-7---7--7-7-7-7--7-7----7--7-7-7-7-6-6-4-4-3-3-------3-3-3-4-4-6-6-|
Eb|-------------------------------------------------4-4-4---------------|
    ...................................................................

Well I guess it´s time for me
Tell me what I´m left to belive in
Cause I don´t know the 
concept of the pain

eb|-----------------------------------------------------------------|
Bb|-----------------------------------------------------------------|
Gb|-6-6-6---------------------------6-6-6---2-2-2-----------2-2-2---|
Db|-6-6-6---6-6-6---2-2-2---6-6-6---6-6-6---2-2-2---2-2-2---2-2-2---|
Ab|-4-4-4---6-6-6---2-2-2---6-6-6---4-4-4---0-0-0---2-2-2---0-0-0---|
Eb|---------4-4-4---0-0-0---4-4-4-------------------0-0-0-----------|
    ...     ...     ...     ...     ...     ...     ...     ... 

eb|-----------------------------------------------------------------|
Bb|-----------------------------------------------------------------|
Gb|-9-9-9---4-4-4---2-2-2-------------------------------------------|
Db|-9-9-9---4-4-4---2-2-2---6-6-6-----------------------------------|
Ab|-7-7-7---2-2-2---0-0-0---6-6-6---6-6-4-4-3-3-------3-3-3-4-4-6-6-|
Eb|-------------------------4-4-4---------------4-4-4---------------|
    ...     ...     ...     ... 

I don´t want the faith
I´ll just lose it 
I can prove it
Watch me bleed


Chorus:
 
Guitar 1 and 2:
eb|-----------------------------------------------------------------|
Bb|-----------------------------------------------------------------|
Gb|---------------------------------6-6-6-6-6-6-6-6-2-2-2-2-2-2-2-2-|
Db|-2-2-2-2-2-2-2-2-4-4-4-4-4-4-4-4-6-6-6-6-6-6-6-6-2-2-2-2-2-2-2-2-|  x3
Ab|-2-2-2-2-2-2-2-2-4-4-4-4-4-4-4-4-4-4-4-4-4-4-4-4-0-0-0-0-0-0-0-0-|
Eb|-0-0-0-0-0-0-0-0-2-2-2-2-2-2-2-2---------------------------------|

Tear me open I belive 
Good will set you up to bleed
And no one can decive
What is meant to be and
Bloody murder we will scream
God will set you up to bleed 

eb|---------------------------------|
Bb|---------------------------------|
Gb|-----------------5-5-5-5-5-5-5-5-|
Db|-2-2-2-2-2-2-2-2-5-5-5-5-5-5-5-5-|
Ab|-2-2-2-2-2-2-2-2-3-3-3-3-3-3-3-3-|
Eb|-0-0-0-0-0-0-0-0-----------------|

Tear me open


Solo:

Guitar 1 and 2:             1.    2.
eb|------------------------|-----|-------|
Bb|------------------------|-----|-------|
Gb|-6-6666—-6-6666—-6-6666-|—----|-------|
Db|-6-6666—-6-6666—-6-6666—|-6-7-|-7-6-4-|
Ab|-4-4444—-4-4444—-4-4444—|-6-7-|-7-6-4-|
Eb|------------------------|-4-5-|-5-4-2-|
      ....    ....    ....

eb|------------------------|
Bb|------------------------|
Gb|-6-6666—-6-6666—-6-6666-|
Db|-6-6666—-6-6666—-6-6666—|
Ab|-4-4444—-4-4444—-4-4444—|
Eb|------------------------|
      ....    ....


|Guitar 1:
|eb|------------------------------------------------------------|
|Bb|-9-9-----9-9------7-7-----7-7------------9-------9----------|
|Gb|-----9-9-----9-9------8-8-----8-8--11b13---11b13---13rb11-9-|
|Db|------------------------------------------------------------|
|Ab|------------------------------------------------------------|
|Eb|------------------------------------------------------------|
|
|Guitar 2:
|eb|------------------------------------------------------------|
|Bb|------------------------------------------------------------|
|Gb|---------------------------------------------------2--------|
|Db|-2---------------6---------------------------------2x8------|
|Ab|-2x8-------------6x16------------------------------0--------|
|Eb|-0---------------4------------------------------------------|

|Guitar 1:
|eb|--------------------------------------------------------------|
|Bb|-------9-9-------9------77------7-------9-9---------9-9-9-----|
|Gb|-11b13-----11b13---9b11----9b11---11b13------11b13------11b13-|
|Db|--------------------------------------------------------------|
|Ab|--------------------------------------------------------------|
|Eb|--------------------------------------------------------------|
|
|Guitar 2:
|eb|--------------------------------------------------------------|
|Bb|--------------------------------------------------------------|
|Gb|-6------------------------------------------------------2-----|
|Db|-6x8---------------6------------------------------------2x8---|
|Ab|-4-----------------6x16---------------------------------0-----|
|Eb|-------------------4------------------------------------------|

|Guitar 1:
|eb|-12“-11“-9“-7“-9“-7“-4“-7“---------------------|<- tremolo picking  
|Bb|----------------------------9-9p7\5-7-7p5\4----|
|Gb|-----------------------------------------------|
|Db|-----------------------------------------------|
|Ab|-----------------------------------------------|
|Eb|-----------------------------------------------|
|
|Guitar 2:
|eb|-----------------------------------------------|
|Bb|-----------------------------------------------|
|Gb|----------------------------6-------------2----|
|Db|-2-------------4------------6x8-----------2x8--|
|Ab|-2x8-----------4x8----------4-------------0----|
|Eb|-0-------------2-------------------------------|

|Guitar 1:
|eb|-4/9“--4/11“--4/12“--14“--16“--16b17rb16b17rb16-|
|Bb|------------------------------------------------|
|Gb|------------------------------------------------|
|Db|------------------------------------------------|
|Ab|------------------------------------------------|
|Eb|------------------------------------------------|
|
|Guitar 2:
|eb|------------------------------------------------|
|Bb|------------------------------------------------|
|Gb|-6-----5------4------2--------------------------|
|Db|-6x8---5x8----4x8----2x16-----------------------|
|Ab|-4-----3------2------0--------------------------|
|Eb|------------------------------------------------|


Bridge:

Guitar 1:
eb|----------------------------------------------------------------------------------|
Bb|----------------------------------------------------------------------------------|
Gb|-6-----6----------6-------------------------------------------8--8--6--6--5--5----|
Ab|-6—-6—-6-6-4-2-4—-6—-6-7-6-4-2-2-2-2-2-2-2-2-7-7-7-7-6-6-6-6—--—--—--—--—--—----6-|
Db|-4—-6—-4—6-4-2—4—-4—-6-7-6-4-2-2-2-2-2-2-2-2-7-7-7-7-6-6-6-6—-6-—6—-4—-4—-3—-3----|
Eb|----4----4-2-0-2-----4-5-4-2-0-0-0-0-0-0-0-0-5-5-5-5-4-4-4-4--------------------4-|

eb|-------------------------------------------------------------|
Bb|-------------------------------------------------------------|
Gb|-6-----6----------6------------------------------------------|
Ab|-6—-6—-6-6-4-2-4—-6—-6-7-6-4-2-2-2-2-2-2-2-2-7-7-7-7-6-6-6-6—|
Db|-4—-6—-4—6-4-2—4—-4—-6-7-6-4-2-2-2-2-2-2-2-2-7-7-7-7-6-6-6-6—|                 
Eb|----4----4-2-0-2-----4-5-4-2-0-0-0-0-0-0-0-0-5-5-5-5-4-4-4-4-|

eb|---------------------------------|
Bb|---------------------------------|
Gb|---------------------------------|
Ab|---------------------------------|
Db|-6-6-4-4-3-3-------3-3-3-4-4-5-5-|
Eb|-------------4-4-4---------------|


Chorus:

Both Guitars:
eb|-----------------------------------------------------------------|
Bb|-----------------------------------------------------------------|
Gb|---------------------------------6-6-6-6-6-6-6-6-2-2-2-2-2-2-2-2-|
Ab|-2-2-2-2-2-2-2-2-4-4-4-4-4-4-4-4-6-6-6-6-6-6-6-6-2-2-2-2-2-2-2-2-|  x2
Db|-2-2—2-2-2-2-2-2-4-4-4-4-4-4-4-4-4-4-4-4-4-4-4-4-0-0-0-0-0-0-0-0-|
Eb|-0-0-0-0-0-0-0-0-2-2-2-2-2-2-2-2---------------------------------|

Tear me open I belive 
Good will set you up to bleed
And no one can decive
What is meant to be and

eb|-------------------------------------------------------------------|
Bb|-------------------------------------------------------------------|
Gb|---------------------------------6-6-6-6-6-6-6-6-5-5-5-5---------2-|
Ab|-2-2-2-2-2-2-2-2-4-4-4-4-4-4-4-4-6-6-6-6-6-6-6-6-5-5-5-5-6-6-6-6-2-| 
Db|-2-2—2-2-2-2-2-2-4-4-4-4-4-4-4-4-4-4-4-4-4-4-4-4-3-3-3-3-6-6-6-6-0-|
Eb|-0-0-0-0-0-0-0-0-2-2-2-2-2-2-2-2-------------------------4-4-4-4---|

Bloody murder we will scream
God will set you up to bleed
Tear me open



Outro:

Guitar 1:
eb|------------------------------------------------------------------------------------|
Bb|-5—-5-—5-—5-5-----------------------------------------------------------------------|
Gb|-6—-6—-6—-6-6—-5—-5-—5—-5-5—-6—-6-—6—-6-6—-1—-1—-1—-1-1-—5-—5-—5-—5-5—-6—-6—-6—-6-6-|
Db|-6—-6—-6—-6-6—-6-—6-—6-—6-6—-7—-7—-7—-7—7—-2—-2—-2—-2-2—-6—-6—-6-—6-6—-7—-7-—7-—7-7-|
Ab|-4—-4—-4—-4-4—-6—-6—-6—-6-6—-7—-7—-7—-7—7—-2-—2-—2—-2-2—-6—-6—-6—-6—6—-7—-7—-7—-7—7-|
Eb|---------------4--4--4--4-4--5--5--5--5-5--0--0--0--0-0--4--4--4--4-4--5--5--5--5-5-|

eb|------------------|
Bb|------------------|
Gb|-1-—1-—1—-1-1—-5--|
Db|-2—-2—-2—-2-2—-6--|
Ab|-2—-2—-2—-2-2—-6--|
Eb|-0--0--0--0-0--4--|

(Guitar 2:)
eb|--------------------|
Bb|-14-13-10-9-7-5-5-4-|
Gb|--------------------|
Db|--------------------|
Ab|--------------------|
Eb|--------------------|

These days are strange it´s true
There´s not a thing
that I would thange
no mistakes that I´d undo

            
            
Suggest correction
Creating personal tab
Creating personal tab
You can edit any tab online and save it as your Personal.

You can edit, replace or remove any tab part or add personal notes – all changes will be seen only by you.

Personal tabs can be accessed anytime from any device, even offline.
Learn more »
Give kudos to tab author, rate the tab!
1 2 3 4 5
comments
print report bad tab
guest
You may want to rate the tab now too:
select rating
Wanna post a correction for this tab? Suggest correction