Oops, an error
Loading. Please wait.
We have an official Slipping Away tab made by UG professional guitarists. Check out the tab »
×
by Sum 41
1,635 views 9 this week
no commentswrite comment
1 2 3 4 5
x 3
add to favorites
×
Save as Personal and add changes to this tab that will be seen only by you. Learn more ›
×
You can save this tab as Personal to edit and correct it or add notes. All changes will be seen only by you. Learn more »
launch autoscroll
font size
0
reset
how to read this tab
guitar tuner
edit
Autoscroll
slow
fast
+/-
esc
set tempo
stop
tune down half a step...

lets call this chord C minor    e-x
                                b-x
                                g-2
                                d-2
                                a-4
                                E-x

intro:

D major,E minor,G major,E minor,G major.  x2

verse:

D major,C# minor,G major,E minor,G major.  x4

you also play this during the verse a few times

e---------------------------------------|
b----------------*12--------------------|  * harmonics
g--7-7-7-7-----------*12----------------|
d--5-5-5-5------------------------------|
a---------------------------------------|
E---------------------------------------|

and on the 3rd time round on the verse a second guitar plays a lead

e------0-------0-------2-------2-------5-----5---------3-------2---|
b----3---3---3---3---3---3---3---3---3---3-----3-----3---3---3---3-|
g--0-------0-------0-------0-------0-------0-----0-4-------3-------|  x2
d------------------------------------------------------------------|
a------------------------------------------------------------------|
E------------------------------------------------------------------|

                            OR

e------0-------0-------2-------2-------5-----5---------3-------2---|
b----3---3---3---3---3---3---3---3---3---3-----3-----3---3---3---3-|
g--2-------2-------4-------4-------4-------4------4--------3-------|  x2
d------------------------------------------------------------------|
a------------------------------------------------------------------|
E------------------------------------------------------------------|


     
chorus:

E minor,G major,D major,C# minor x2

E minor,G major

then you palm mute thes notes

e-------------------------------------|
b-------------------------------------|
g-------------------------------------|
d--7-7-7-7-7-7-7-7-6-6-6-6-6-6-6-66---|
a--5-5-5-5-5-5-5-5-4-4-4-4-4-4-4-44-5-|
E-----------------------------------3-|  play these last notes open

now a celo just plays the chorus again...a beautiful song by sum 41...

submitted by aftabblink182@hotmail.com

have fun cos this song is 100% accurate...

            
            
Suggest correction
Creating personal tab
Creating personal tab
You can edit any tab online and save it as your Personal.

You can edit, replace or remove any tab part or add personal notes – all changes will be seen only by you.

Personal tabs can be accessed anytime from any device, even offline.
Learn more »
Give kudos to tab author, rate the tab!
1 2 3 4 5
comments
print report bad tab
guest
Wanna post a correction for this tab? Suggest correction