Oops, an error
Loading. Please wait.

Slipping Away Tab

version 5
version 5

Intro

Whole song

122 views 1 this week
no commentswrite comment
1 2 3 4 5
please rate
add to favorites
launch autoscroll
font size
0
reset
how to read this tab
guitar tuner
Tab Pro tools
  • play this tab
  • loop segment
  • change instrument
  • show fretboard
  • metronome
Autoscroll
slow
fast
+/-
esc
set tempo
stop
Contributor
Slipping Away

Key: C#

Tuning: Standard EADGBe

Chords used:
C# -   x46664
G# -   466544
Ebm -  x68876
F# -   244322
F#m -  244222


Intro: Ebm--F#-Ebm-F#-C#--Ebm--F#--Ebm-F#

Verse:
    C#  G#    F# Ebm F#m
I'm slipping away
   C# G#    F#  Ebm F#m
In e---very way
  C#      G#   F#  Ebm F#m
I can't  stay awake
(and I don't know why)
    C#  G#    F# Ebm F#m
I'm slipping away
(and I don't know why)


Dave:
    H        S S S S S S E     E   E   E   Q    E  Q
e|-----------2---2---2---1--|--L--13--------------------|-------|-------|
B|-----------2---2---2---2--|--L------14----------------|-------|-------|
G|--------------------------|-------------13----L--L----|-------|-------|
D|--------------------------|---------------------------|-------|-------|
A|--------------------------|---------------------------|-------|-------|
E|--------------------------|---------------------------|-------|-------|

  H        S S S S S S E     E   E   E   Q    E  Q
-----------2---2---2---1--|--L--13--------------------|-------|-------|
-----------2---2---2---2--|--L------14----------------|-------|-------|
--------------------------|-------------13----L--L----|-------|-------|
--------------------------|---------------------------|-------|-------|
--------------------------|---------------------------|-------|-------|
--------------------------|---------------------------|-------|-------|

  H        S S S S S S E     E   E   E   Q    E  Q
-----------2---2---2---1--|--L--13--------------------|-------|-------|
-----------2---2---2---2--|--L------14----------------|-------|-------|
--------------------------|-------------13----L--L----|-------|-------|
--------------------------|---------------------------|-------|-------|
--------------------------|---------------------------|-------|-------|
--------------------------|---------------------------|-------|-------|

  H        S S S S S S E     E   E   E   Q    E  Q
-----------2---2---2---1--|--L--13--------------------|-------||
-----------2---2---2---2--|--L------14----------------|-------||
--------------------------|-------------13----L--L----|-------||
--------------------------|---------------------------|-------||
--------------------------|---------------------------|-------||
--------------------------|---------------------------|-------||


Deryck: Guitar 2:
    E  E  E  E  E  E  E  E    E  E  E  E  E  E  E E
e|--------------------------|--------1-----------1-----|
B|-----2--4--2-----2--4--2--|-----4-----4-----4-----4--|
G|--1-----------1-----------|--1-----------1-----------|
D|--------------------------|--------------------------|
A|--------------------------|--------------------------|
E|--------------------------|--------------------------|

  E  E  E  E  E  E  E  E    E  E  E  E  E  E  E E
--------4--------4--------|--------2-----------1-----|
-----2--------2-----2-----|-----2-----2-----2-----2--|
--3--------3-----------3--|--3-----------1-----------|
--------------------------|--------------------------|
--------------------------|--------------------------|
--------------------------|--------------------------|

  E  E  E  E  E  E  E  E    E  E  E  E  E  E  E E
--------------------------|--------1-----------1-----|
-----2--4--2-----2--4--2--|-----4-----4-----4-----4--|
--1-----------1-----------|--1-----------1-----------|
--------------------------|--------------------------|
--------------------------|--------------------------|
--------------------------|--------------------------|

  E  E  E  E  E  E  E  E    E  E  E  E  E  E  E E
--------4--------4--------|--------2-----------1-----||
-----2--------2-----2-----|-----4-----4-----2-----2--||
--3--------3-----------3--|--3-----------2-----------||
--------------------------|--------------------------||
--------------------------|--------------------------||
--------------------------|--------------------------||


Chorus:
    Ebm
I'm trying to make
   F#
it through each day
    C#
I'm falling apart
       G#
now in every way
    Ebm
I'm finding it
       F#
harder to get by
         C#
Theres a hole in my heart
      G#
And I dont know why
    Ebm             F#
Now I've come to realize


Outro:
    C#  G#    F#(hold)
I'm slipping away


Ending: Ebm--F#--C#--G# x2 Ebm--F#(hold)
comments
We did not receive enough feedback on this tab! Please rate:
print report bad tab
1 2 3 4 5
I want to post or [tab]
guest
You may want to rate the tab now too:
select rating
Please do not post tabs as comments. Select "correction" instead!