Oops, an error
Loading. Please wait.

So Long Goodbye Bass Tab

version 1
version 1

Whole song

Interactive

2,968 views 3 this week
no commentswrite comment
1 2 3 4 5
excellent!
x 1
add to favorites
launch autoscroll
font size
0
reset
guitar tuner
Tab Pro tools
  • play this tab
  • loop segment
  • change instrument
  • show fretboard
  • metronome
×
Best way to learn
"So Long Goodbye"
Autoscroll
slow
fast
+/-
esc
set tempo
stop
Contributor
Sum 41
So Long Goodbye


Key: G

Intro:
G|--------------------------------|
D|--------------------0-2-4-5-----|
A|------0-2-3--3-5-3----------5---| x2
E|-3--3-------------------------3-|


Verses:
G|------------|
D|------------|
A|----3--5----| x4
E|-3--------3-|


Chorus:
G|------------------------------------------|
D|------------------------------------------|
A|-3--5-----3--5-----3--5-----5--3--3--5----|
E|-------3--------0--------0--------------3-|


Bridge:
G|-----------------------------------------|
D|-----------------------------------------|
A|--------3-----5---------3-----------3--5-|
E|-3-2-0-----3-----3-2-0-----3--2--0-------|
comments
We did not receive enough feedback on this tab! Please rate:
print report bad tab
1 2 3 4 5
I want to post or [tab]
guest
You may want to rate the tab now too:
select rating
Please do not post tabs as comments. Select "correction" instead!