Oops, an error
Loading. Please wait.

Some Say Tab

version 1
version 1

Acoustic

Whole song

10,311 views 6 this week
2 commentsread comments
1 2 3 4 5
accurate
x 6
add to favorites
launch autoscroll
font size
0
reset
how to read this tab
guitar tuner
Autoscroll
slow
fast
+/-
esc
set tempo
stop
Help us to improve Ultimate-Guitar.com Take our survey!
×
-------------------------------------------------------------------------------
                             Some Say acoustic - Sum 41
-------------------------------------------------------------------------------

Tuning: standart

you can listen to this version of 'some say' here: http://www.youtube.com/watch?v=7TB-O_CXLsc

Intro: (strumming is not shown)
e|--------------------------------------------------------------------------|
B|--------------------------------------------------------------------------|
G|---7--------------5-------------------5-----------------------------------|
D|---7----8----3----5----8---------3----5----8------------------------------|
A|---5----8----3----3----x----8----3----3----x----8-------------------------|
E|--------6----1---------6----6----1---------6----6-------------------------|

Verse: (strumming is not shown)
e|---------------------------------------------------------------------------|
B|---------------------------------------------------------------------------|
G|---7-----------------------------------------------------------------------|
D|---7-------3-------5-------8-----------------------------------------------|
A|---5-------3-------5-------8-----------------------------------------------|
E|-----------1-------3-------6-----------------------------------------------|

Chorus: (strumming is not shown)
e|---------------------------------------------------------------------------|
B|---------------------------------------------------------------------------|
G|--7------------------------------------------------------------------------|
D|--7----8----3----5----5---8----3----5----8---------------------------------|
A|--5----8----3----5----5---8----3----5----8---------------------------------|
E|-------6----1----3----3---6----1----3----6---------------------------------|

Solo: (this solo is actually played by a piano, but you can also play it     
       with the guitar)
 
1st part: play 2 times                           2nd part: play 2 times
e|---------------------------------------------||-----------------------------|
B|---------------------------------------------||-----------------------------|
G|--------5------2-3-2-3-2---0---2---3---2-3-0-||-------0---2---3-2-0-2-3-2---|
D|--3--0------3--------------------------------||---3-------------------------|
A|---------------------------------------------||-----------------------------|
E|---------------------------------------------||-----------------------------|
                                solo end:
e|----------------------------||-----------------------------------------------|
B|----------------------------||-----------------------------------------------|
G|--0--------0-0---2-2-3-2-0--||-----------------------------------------------|
D|------3-3-------------------||--0-----0---0----------------------------------|
A|----------------------------||-----1----1------------------------------------|
E|----------------------------||-----------------------------------------------|

That's it, have fun and please rate :)
Suggest correction
comments
print report bad tab
2 comments total.
0 reply
dehnjo 10 wrote on September 18 2011, 04:07 pm

I tihnk the first Chord in the Verse is

e|-------|
B|--4----|
G|--5----|
D|--5----|
A|--7----|
E|-------|

In my opinion it sounds better that way

0 reply
iTobyK 10 wrote on December 17 2012, 07:19 pm

Wayy off.

Horrible tab.

guest
You may want to rate the tab now too:
select rating
Wanna post a correction for this tab? Suggest correction