Oops, an error
Loading. Please wait.

Speak Of The Devil Bass Tab

version 1
version 1

Whole song

Interactive

3,173 views 1 this week
5 commentsread comments
1 2 3 4 5
x 5
add to favorites
launch autoscroll
font size
0
reset
guitar tuner
Autoscroll
slow
fast
+/-
esc
set tempo
stop
Help us to improve Ultimate-Guitar.com Take our survey!
×
Author
Difficulty
novice
This is one of my favorite songs from the new Underclass Hero Album.  The intro is the 
part Im not too sure about, everything else should be correct.

Intro 0:30

--------------------------------------------------------|
--------------------------------------------------------|
-444-----4-4-4------------------------------------------|
-----22-------------------------------------------------| x2


--------------------------------------------------------|
--------------------------------------------------------|
------4-----6-----2--------444----4-4-4-----------------|
-2-----------------------------22-----------------------| x1


Verse 0:44

---6---6---6---6------------------------------------------------------|
-44--44--44--44----8---8---8---8----4---4---4---4----6---6---6---6----|
-----------------66--66--66--66---22--22--22--22---44--44--44--44-----|
----------------------------------------------------------------------| x4

there might be a variation at the end of the verse where he only plays the root fifth 
on the F# and C# but i coudnt really hear it for sure


Pre Chorus 1:24
-----------------------|
-----------------------|
-22222222---44444444---|
-----------------------|


Chorus 1:28

------------------------------------------------|
------------------------------------1-----------|
-66666666--44444444------------2222--2----------|
---------------------22222222-------------------|

------------------------------------------------|
------------------------------------------------|
-66666666--44444444------------22222222---------|
---------------------22222222-------------------|


Chorus ending
------------------------------------------------|
------------------------------------------------|
-6666--------4444--------4444--------44444444---|
-------2222--------2222--------2222-------------|


then

verse 1:58
pre chorus 2:36
chorus 2:41
chorus ending x2
Suggest correction
comments
print report bad tab
5 comments total. Showing first comments.
0 reply
matt_452 31 Aug 09, 2007 11:44 AM

wrong, everything but the chorus

0 reply
rastabass 308 Aug 09, 2007 11:51 AM

u need to listen closer, its not wrong

0 reply
rastabass 308 Sep 03, 2007 11:18 AM

hmm i listened to the song again to today and noticed a few things i did that might be wrong, its just hard to hear the parts in the song but ill post the fixes here instead of editing the tab because im not 100% sure if this is even right.

Intro
--------------------------------------------------------|
--------------------------------------------------------|
-444-----2-2-2------------------------------------------|
-----22-------------------------------------------------|


chorus
------------------------------------------------|
------------------------------------1-----------|
-66666666--22222222------------2222--2----------|
---------------------22222222-------------------|

------------------------------------------------|
------------------------------------------------|
-66666666--22222222------------22222222---------|
---------------------22222222-------------------|

guest
You may want to rate the tab now too:
select rating
Wanna post a correction for this tab? Suggest correction