Oops, an error
Loading. Please wait.

Speak Of The Devil Tab

version 1
version 1

Whole song

Interactive

10,027 views 27 this week
1 commentread comment
1 2 3 4 5
accurate
x 3
add to favorites
launch autoscroll
font size
0
reset
how to read this tab
guitar tuner
Autoscroll
slow
fast
+/-
esc
set tempo
stop
Help us to improve Ultimate-Guitar.com Take our survey!
×
Difficulty
novice
Right keeping this short this is a mint song off of their new album \"Underclass Hero\".

Key
(-) Wiggle this note

Intro

You need to have your amp up quite loud to get a good sound from this.

E|---------|    This is going on in every verse in the background
B|---(7)---|
G|---------|    This goes on through the singing
D|---------|
A|---------|
E|---------|

Next Part

Gtr. 1

E|-------------------------------------------------------|
B|-------------------------------------------------------|
G|----6---6---6---6---6---6---6---6----------------------|
D|--4---4---3---3---4---4---3---3----4-4-4-4-x-x-3-3-3-4-|
A|-----------------------------------4-4-4-4-x-x-3-3-3-4-|
E|-----------------------------------2-2-2-2-2-2-1-1-1-2-|

E|-------------------------------------------------------|
B|-------------------------------------------------------|
G|----6---6---6---6---3---3------------------------------|
D|--4---4---3---3---1---1-----6---6--4-4-4-4-x-x-3-3-3-4-|
A|--------------------------4---4----4-4-4-4-x-x-3-3-3-4-|
E|-----------------------------------2-2-2-2-2-2-1-1-1-2-|

E|-------------------------------------------------------|
B|-------------------------------------------------------|
G|----6---6---6---6---3---3------------------------------|
D|--4---4---3---3---1---1-----6---6--4-4-4-4-x-x-3-3-3-4-|
A|--------------------------4---4----4-4-4-4-x-x-3-3-3-4-|
E|-----------------------------------2-2-2-2-2-2-1-1-1-2-|

Gtr.2
E|---------------------------------------------------------------|
B|---------------------------------------------------------------|
G|-----------------------------------11-11-11-11-----10-10-10-11-|
D|-----------------------------------11-11-11-11-----10-10-10-11-|
A|-----------------------------------9--9--9--9------8--8--8--9--|
E|---------------------------------------------------------------|

E|---------------------------------------------------------------|
B|---------------------------------------------------------------|
G|-----------------------------------11-11-11-11-----10-10-10-11-|
D|-----------------------------------11-11-11-11-----10-10-10-11-|
A|-----------------------------------9--9--9--9------8--8--8--9--|
E|---------------------------------------------------------------|

E|---------------------------------------------------------------|
B|---------------------------------------------------------------|
G|-----------------------------------11-11-11-11-----10-10-10-11-|
D|-------------------1~--------------11-11-11-11-----10-10-10-11-|
A|----------4~---------------2~------9--9--9--9------8--8--8--9--|
E|--2~-----------------------------------------------------------|

Verse--Same as intro

Bridge
E|--2~---2~---2-2-2-2-2-2-2-2-2-2-2-2-2-2-2-2-|
B|--4~---2~---4-4-4-4-4-4-4-4-2-2-2-2-2-2-2-2-|
G|--4~---3~---4-4-4-4-4-4-4-4-3-3-3-3-3-3-3-3-|
D|--4~---4~---4-4-4-4-4-4-4-4-4-4-4-4-4-4-4-4-|
A|-------4~-------------------4-4-4-4-4-4-4-4-|
E|--------------------------------------------|

Chorus--I\'ll put the chords down you work out how many times to play them

\"I\'ve been waiting...\"
E|----------|
B|----------|
G|--8-4---6-|
D|--8-4-4-6-|
A|--6-2-4-4-|
E|------2---|

\"Nothing but a...\"
E|----------------|
B|----------------|
G|--4---4---4---6-|
D|--4-4-4-4-4-4-6-|
A|--2-4-2-4-2-4-4-|
E|----2---2---2---|

Post Chorus
E|----------------------------------|
B|----------------------------------|
G|----6---6---6---6---6---6---6---6-|
D|--4---4---3---3---4---4---3---3---|
A|----------------------------------|
E|----------------------------------|

Verse--Same as intro

Bridge
Theres a piano bit but then

E|--2-2-2-2-2-2-2-2-4-4-4-4-4-4-4-4-|
B|--4-4-4-4-4-4-4-4-6-6-6-6-6-6-6-6-|
G|--4-4-4-4-4-4-4-4-6-6-6-6-6-6-6-6-|
D|--4-4-4-4-4-4-4-4-6-6-6-6-6-6-6-6-|
A|----------------------------------|
E|----------------------------------|

Chorus

Ending
E|--9--
B|--7-- It does this numerous times
G|-----
D|-----
A|-----
E|-----

And thats that
Suggest correction
What's this?
You can suggest a correction to this tab. Community and Mods will review your correction and vote to approve or reject it.
comments
We did not receive enough feedback on this tab! Please rate:
print report bad tab
1 2 3 4 5
1 comment total.
0 reply
AvAaron182 311 wrote on July 25 2007, 01:23 pm

your off on a few things
and you missed a few things as well

guest
You may want to rate the tab now too:
select rating
Please do not post tabs as comments. Select "correction" instead!