Oops, an error
Loading. Please wait.

Speak Of The Devil Bass Tab

version 2
version 2

Whole song

Interactive

595 views 1 this week
2 commentsread comments
1 2 3 4 5
poor
x 1
add to favorites
launch autoscroll
font size
0
reset
guitar tuner
Tab Pro tools
  • play this tab
  • loop segment
  • change instrument
  • show fretboard
  • metronome
Autoscroll
slow
fast
+/-
esc
set tempo
stop
Contributor
------------------------------------|
------------------------------------|
------------------------------------|
3-3-3-3-----------2----2----2---3---|

---------------------------------------------------|
---------------------------------------------------|
--------------------------------10~-------6~-------|
3-3-3-3-----------2----2----2----------------------|

--------------------------------------------------|
--------------------------------------------------|
7~-------5~---------------------------------------|
------------------3-3-3-3-----------2----2----2---|

----------------------------------------------------------------|
----------------------------------------------------------------|
10-10-10-10-10-10-10-10-10-10-10-10-10-10-10-10-7-7-7-7-7-7-7-7-|
----------------------------------------------------------------|

------------------------------------------------|
------------------------------------------------|
7-7-7-7-7-7-7-7-3-3-3-3-3-3-3-3-3-3-3-3-3-3-3-3-|
------------------------------------------------|

--------------------------------------------------------|
--------------------------------------------------------|
5-5-5-5-5-5-5-5-5-5-5-5-5-5-5-5-10-10-10-10-10-10-10-10-|
--------------------------------------------------------|

--------------------------------------------------------|
--------------------------------------------------------|
10-10-10-10-10-10-10-10-7-7-7-7-7-7-7-7-7-7-7-7-7-7-7-7-|
--------------------------------------------------------|

------------------------------------------------7-7-7-7---------|
--------------------------------------------------------7-7-7-7-|
3-3-3-3-3-3-3-3-3-3-3-3-3-3-3-3-5-5-5-5-5-5-5-5-----------------|
----------------------------------------------------------------|

----------------------------------------------------------------|
----------------------------------------------------------------|
7-7-7-7-7-7-7-7-7-7-7-7-7-7-7-7-3-3-3-3-3-3-3-3-3-3-3-3-3-3-3-3-|
----------------------------------------------------------------|

----------------------------------------------------------------|
----------------------------------------------------------------|
--------------------------------5-5-5-5-5-5-5-5-5-5-5-5-5-5-5-5-|
3-3-3-3-3-3-3-3-3-3-3-3-3-3-3-3---------------------------------|

----------------------------------------------------------------|
----------------------------------------------------------------|
7-7-7-7-7-7-7-7-7-7-7-7-7-7-7-7-3-3-3-3-3-3-3-3-3-3-3-3-3-3-3-3-|
----------------------------------------------------------------|

----------------------------------------------------------------|
----------------------------------------------------------------|
--------------------------------5-5-5-5-5-5-5-5-5-5-5-5-5-5-5-5-|
3-3-3-3-3-3-3-3-3-3-3-3-3-3-3-3---------------------------------|

-----------------|
-----------------|
3~---------------|
-----------------|

-------------------------------------------------|
-------------------------------------------------|
3~---------------5---5---5---5---5---5---5---5---|
-------------------------------------------------|

----------------------------------------------------------------|
----------------------------------------------------------------|
--------------------------------3-3-3-3-3-3-3-3-3-3-3-3-3-3-3-3-|
0-0-0-0-0-0-0-0-0-0-0-0-0-0-0-0---------------------------------|

----------------------------------------------------------|
----------------------------------------------------------|
----------------------------------------------------------|
3-3-3-3-3-3-3-3-3-3-3-3-3-3-3-3-2-2-2-2-2-2-2-2-3----2----|

----------------------------------------------------------------|
----------------------------------------------------------------|
--------------------------------3-3-3-3-3-3-3-3-3-3-3-3-3-3-3-3-|
0-0-0-0-0-0-0-0-0-0-0-0-0-0-0-0---------------------------------|

----------------------------------------------------------------|
----------------------------------------------------------------|
--------------------------------2-2-2-2-2-2-2-2-2-2-2-2-2-2-2-2-|
3-3-3-3-3-3-3-3-3-3-3-3-3-3-3-3---------------------------------|

------------------------------------------------------------------|
------------------------------------------------------------------|
3-3-3-3-3-3-3--------------------3-3-3-3-3-3-3--------------------|
--------------3--3-3-3-3-3-3-3-3---------------3--3-3-3-3-3-3-3-3-|

-------------------------------------------------|
-------------------------------------------------|
3-3-3-3-3-3-3--------------------5-5-5-5-5-5-5---|
--------------3--3-3-3-3-3-3-3-3-----------------|

--------------------|
--------------------|
5-5-5---5-5-5-------|
----------------3---|

----------------------------------------------------------------|
----------------------------------------------------------------|
10-10-10-10-10-10-10-10-10-10-10-10-10-10-10-10-7-7-7-7-7-7-7-7-|
----------------------------------------------------------------|

------------------------------------------------|
------------------------------------------------|
7-7-7-7-7-7-7-7-3-3-3-3-3-3-3-3-3-3-3-3-3-3-3-3-|
------------------------------------------------|

--------------------------------------------------------|
--------------------------------------------------------|
5-5-5-5-5-5-5-5-5-5-5-5-5-5-5-5-10-10-10-10-10-10-10-10-|
--------------------------------------------------------|

--------------------------------------------------------|
--------------------------------------------------------|
10-10-10-10-10-10-10-10-7-7-7-7-7-7-7-7-7-7-7-7-7-7-7-7-|
--------------------------------------------------------|

------------------------------------------------7-7-7-7---------|
--------------------------------------------------------7-7-7-7-|
3-3-3-3-3-3-3-3-3-3-3-3-3-3-3-3-5-5-5-5-5-5-5-5-----------------|
----------------------------------------------------------------|

----------------------------------------------------------------|
----------------------------------------------------------------|
7-7-7-7-7-7-7-7-7-7-7-7-7-7-7-7-3-3-3-3-3-3-3-3-3-3-3-3-3-3-3-3-|
----------------------------------------------------------------|

----------------------------------------------------------------|
----------------------------------------------------------------|
--------------------------------5-5-5-5-5-5-5-5-5-5-5-5-5-5-5-5-|
3-3-3-3-3-3-3-3-3-3-3-3-3-3-3-3---------------------------------|

----------------------------------------------------------------|
----------------------------------------------------------------|
7-7-7-7-7-7-7-7-7-7-7-7-7-7-7-7-3-3-3-3-3-3-3-3-3-3-3-3-3-3-3-3-|
----------------------------------------------------------------|

----------------------------------------------------------------|
----------------------------------------------------------------|
--------------------------------5-5-5-5-5-5-5-5-5-5-5-5-5-5-5-5-|
3-3-3-3-3-3-3-3-3-3-3-3-3-3-3-3---------------------------------|

-----------------|
-----------------|
3~---------------|
-----------------|

-------------------------------------------------|
-------------------------------------------------|
3~---------------5---5---5---5---5---5---5---5---|
-------------------------------------------------|

----------------------------------------------------------------|
----------------------------------------------------------------|
--------------------------------3-3-3-3-3-3-3-3-3-3-3-3-3-3-3-3-|
0-0-0-0-0-0-0-0-0-0-0-0-0-0-0-0---------------------------------|

----------------------------------------------------------|
----------------------------------------------------------|
----------------------------------------------------------|
3-3-3-3-3-3-3-3-3-3-3-3-3-3-3-3-2-2-2-2-2-2-2-2-3----2----|

----------------------------------------------------------------|
----------------------------------------------------------------|
--------------------------------3-3-3-3-3-3-3-3-3-3-3-3-3-3-3-3-|
0-0-0-0-0-0-0-0-0-0-0-0-0-0-0-0---------------------------------|

----------------------------------------------------------------|
----------------------------------------------------------------|
--------------------------------2-2-2-2-2-2-2-2-2-2-2-2-2-2-2-2-|
3-3-3-3-3-3-3-3-3-3-3-3-3-3-3-3---------------------------------|

------------------------------------------------------------------|
------------------------------------------------------------------|
3-3-3-3-3-3-3--------------------3-3-3-3-3-3-3--------------------|
--------------3--3-3-3-3-3-3-3-3---------------3--3-3-3-3-3-3-3-3-|

-------------------------------------------------|
-------------------------------------------------|
3-3-3-3-3-3-3--------------------5-5-5-5-5-5-5---|
--------------3--3-3-3-3-3-3-3-3-----------------|

---------------------------------------------------|
---------------------------------------------------|
5-5-5-5-5-5-5-5-3-3-3-3-3-3-3-3--------------------|
--------------------------------3--3-3-3-3-3-3-3-3-|

-----------------------------------|
-----------------------------------|
3-3-3-3-3-3-3-3--------------------| X2
----------------3--3-3-3-3-3-3-3-3-|

--------------------------------|
--------------------------------|
5-5-5---5-5-5---5-5-5---5-5-5---|
--------------------------------|

------------------------------------------------------|
------------------------------------------------------|
------------------------------------------------------|
3----3------------2----2------------0----0------------|

------------------------------------------------------|
------------------------------------------------------|
5----5------------3----3------------------------------|
------------------------------------3----3------------|

------------------------------------|
------------------------------------|
3----3------------5----5------------|
------------------------------------|

------------------------------------------------------|
------------------------------------------------------|
------------------------------------------------------|
3----3------------2----2------------0----0------------|

------------------------------------------------------|
------------------------------------------------------|
5----5------------3----3------------------------------|
------------------------------------3----3------------|

------------------------------------|
------------------------------------|
3----3------------5----5------------|
------------------------------------|
comments
We did not receive enough feedback on this tab! Please rate:
print report bad tab
1 2 3 4 5
2 comments total.
+1 reply
emilbullforever wrote on May 23 2010, 10:53 am

ur tab is a complete mess!

0 reply
thunderhawk wrote on May 23 2010, 05:56 pm

i know! its terrible. i wish there was a way to correct it, cuz if i could i would totally re-do it.

I want to post or [tab]
guest
You may want to rate the tab now too:
select rating
Please do not post tabs as comments. Select "correction" instead!