Oops, an error
Loading. Please wait.

Speak Of The Devil Tab

version 2
version 2

Whole song

Interactive

15,272 views 15 this week
15 commentsread comments
1 2 3 4 5
x 21
add to favorites
launch autoscroll
font size
0
reset
how to read this tab
guitar tuner
Autoscroll
slow
fast
+/-
esc
set tempo
stop
Help us to improve Ultimate-Guitar.com Take our survey!
×
Author
Difficulty
intermediate
This is a new song off Underclass Hero.

Guitar 1: Lead
Guitar 2: Rythem
Guitar 3: Held note
Guitar 4: Acoustic

Tuning: Standard

|---| (Guitar 3)
|-7-| <--This note is repeated throughout the song minus the chorus.
|---|
|---|
|---|
|---|

Intro pt1 (singing): No guiutar

Intro Pt2: (this part is a little confusing with the guitars switching back and forth)
Guitar 1
|---------------------------------|
|---------------------------------|
|---6---6---6---6---6---6---6---6-|
|-4---4---3---3---4---4---3---3---|
|---------------------------------|
|---------------------------------|

Guitar 2
|---------------------|
|---------------------|
|---------------------|
|-444---------------4-|
|-444------4--4--4--4-|
|-222-2-2--1--1--1--2-|

Guitar 1
|---------------------------------|
|---------------------------------|
|---6---6---6---6---3---3---------|
|-4---4---3---3---1---1-----6---6-|
|-------------------------4---4---|
|---------------------------------|

Guitar 2
|---------------------|
|---------------------|
|---------------------|
|-444---------------4-|
|-444------4--4--4--4-|
|-222-2-2--1--1--1--2-|

Now they play at the same time! Yay! (they still have different parts though.)
Guitar 1
|---------------------------------|
|---------------------------------|
|---6---6---6---6---3---3---------|
|-4---4---3---3---1---1-----6---6-|
|-------------------------4---4---|
|---------------------------------|
|
|Guitar 2
|---------------------------------|
|---------------------------------|
|-----------------8-8-8-8-6-6-6-6-|
|-4-4-4-4-4-4-4-4-8-8-8-8-6-6-6-6-|
|-4-4-4-4-4-4-4-4-6-6-6-6-4-4-4-4-|
|-2-2-2-2-1-1-1-1-----------------|

Both
|------------------|
|------------------|
|------------------|
|-444--------------|
|-444------4--4--4-|
|-222-2-2--1--1--1-|

Verse
Guitar 1
|----------------------------------|
|---7---7---4---4------------------|
|--6-6-6-6-3-3-3-3--4---4---6---6--|
|-4---4---1---1----4-4-4-4-6-6-6-6-|
|-----------------2---2---4---4----|
|----------------------------------|
|
|Guitar 2
|-----|
|-----|
|-11\-|
|-11\-|
|-9\--|
|-----|
(I've, seen many a face...)

Guitar 1
|----------------------------------|
|---7---7---4---4------------------|
|--6-6-6-6-3-3-3-3--4---4---6---6--|
|-4---4---1---1----4-4-4-4-6-6-6-6-|
|-----------------2---2---4---4----|
|----------------------------------|x3
(Was here before Christ...)

Pre chorus:
Guitar 4
|-------------------------------------------|
|-7~---7~-----------------------------------|
|-6~---6~---4-4-4-4-4-4-4-4-6-6-6-6-6-6-6-6-|
|-4~---4~---4-4-4-4-4-4-4-4-6-6-6-6-6-6-6-6-|
|-----------2-2-2-2-2-2-2-2-4-4-4-4-4-4-4-4-|
|-------------------------------------------|

Chorus
Guitar 1 and 2
|-----------------------------------------------------------------|
|-----------------------------------------------------------------|
|-8-8-8-8-8-8-8-8-4-4-4-4-4-4-4-4---------------------------------|
|-8-8-8-8-8-8-8-8-4-4-4-4-4-4-4-4-4-4-4-4-4-4-4-4-4-4-4-4---------|
|-6-6-6-6-6-6-6-6-2-2-2-2-2-2-2-2-4-4-4-4-4-4-4-4-4-4-4-4---------|
|---------------------------------2-2-2-2-2-2-2-2-1-1-1-1-2---1---|
I've been waiting for the chance...

|-----------------------------------------------------------------|
|-----------------------------------------------------------------|
|-8-8-8-8-8-8-8-8-4-4-4-4-4-4-4-4-----------------3-3-3-3-3-3-3-3-|
|-8-8-8-8-8-8-8-8-4-4-4-4-4-4-4-4-4-4-4-4-4-4-4-4-3-3-3-3-3-3-3-3-|
|-6-6-6-6-6-6-6-6-2-2-2-2-2-2-2-2-4-4-4-4-4-4-4-4-1-1-1-1-1-1-1-1-|
|---------------------------------2-2-2-2-2-2-2-2-----------------|
So nice of you to speak of me...

|-----------------------------------------------------------------|
|-----------------------------------------------------------------|
|-4-4-4-4---------4-4-4-4---------4-4-4-4---------6-6-6-6-6-6-6-6-|
|-4-4-4-4-4-4-4-4-4-4-4-4-4-4-4-4-4-4-4-4-4-4-4-4-6-6-6-6-6-6-6-6-|
|-2-2-2-2-4-4-4-4-2-2-2-2-4-4-4-4-2-2-2-2-4-4-4-4-4-4-4-4-4-4-4-4-|
|---------2-2-2-2---------2-2-2-2---------2-2-2-2-----------------|
Dead end slave, from the altar to the grave...

Post chorus
|---------------------------------|
|---------------------------------|
|---6---6---6---6---6---6---6---6-|
|-4---4---3---3---4---4---3---3---|
|---------------------------------|
|---------------------------------|

Play verse and pre chorus again

Chorus 2
Both guitars
|-----------------------------------------------------------------|
|-----------------------------------------------------------------|
|-8-8-8-8-8-8-8-8-4-4-4-4-4-4-4-4---------------------------------|
|-8-8-8-8-8-8-8-8-4-4-4-4-4-4-4-4-4-4-4-4-4-4-4-4-4-4-4-4---------|
|-6-6-6-6-6-6-6-6-2-2-2-2-2-2-2-2-4-4-4-4-4-4-4-4-4-4-4-4---------|
|---------------------------------2-2-2-2-2-2-2-2-1-1-1-1-2---1---|
I've been waiting for the chance...

|-----------------------------------------------------------------|
|-----------------------------------------------------------------|
|-8-8-8-8-8-8-8-8-4-4-4-4-4-4-4-4-----------------3-3-3-3-3-3-3-3-|
|-8-8-8-8-8-8-8-8-4-4-4-4-4-4-4-4-4-4-4-4-4-4-4-4-3-3-3-3-3-3-3-3-|
|-6-6-6-6-6-6-6-6-2-2-2-2-2-2-2-2-4-4-4-4-4-4-4-4-1-1-1-1-1-1-1-1-|
|---------------------------------2-2-2-2-2-2-2-2-----------------|
So sick of you to speak of me...

|-----------------------------------------------------------------|
|-----------------------------------------------------------------|
|-4-4-4-4---------4-4-4-4---------4-4-4-4---------6-6-6-6-x-x-x-x-|
|-4-4-4-4-4-4-4-4-4-4-4-4-4-4-4-4-4-4-4-4-4-4-4-4-6-6-6-6-x-x-x-x-|
|-2-2-2-2-4-4-4-4-2-2-2-2-4-4-4-4-2-2-2-2-4-4-4-4-4-4-4-4-x-x-x-x-|
|---------2-2-2-2---------2-2-2-2---------2-2-2-2-----------------|
Dead end slave, from the altar to the grave...

|-----------------------------------------------------------------|
|-----------------------------------------------------------------|
|-4-4-4-4---------4-4-4-4---------4-4-4-4---------6-6-6-6-6-6-6-6-|
|-4-4-4-4-4-4-4-4-4-4-4-4-4-4-4-4-4-4-4-4-4-4-4-4-6-6-6-6-6-6-6-6-|
|-2-2-2-2-4-4-4-4-2-2-2-2-4-4-4-4-2-2-2-2-4-4-4-4-4-4-4-4-4-4-4-4-|
|---------2-2-2-2---------2-2-2-2---------2-2-2-2-----------------|
Dead end slave, from the altar to the grave...

Outro: no guitar except guitar 3

That's all folks!
Suggest correction
comments
print report bad tab
15 comments total. Showing first comments.
0 reply
AvAaron182 87 Jul 31, 2007 11:56 AM

sweeeeeet! this is awesome, thank you for tabbing the guitar in the verse! the other guy was too lazy and didnt even bother

0 reply
dannytalent 115 Aug 06, 2007 03:24 PM

AMAZING tab! awesome job!

0 reply
musicidot 31 Aug 07, 2007 06:41 AM

good job, but the verse part is alittle off ?! the chorus part is awesome , well done

guest
You may want to rate the tab now too:
select rating
Wanna post a correction for this tab? Suggest correction