Oops, an error
Loading. Please wait.

Speak Of The Devil Bass Tab

version 3
version 3

Whole song

Interactive

3,276 views 3 this week
1 commentread comment
1 2 3 4 5
x 14
add to favorites
launch autoscroll
font size
0
reset
guitar tuner
Autoscroll
slow
fast
+/-
esc
set tempo
stop
Help us to improve Ultimate-Guitar.com Take our survey!
×
Author
Difficulty
Artist: Sum 41
Song: Speak Of The Devil (Bass)
Album: Underclass Hero (2007)
tabbed by: necriononguitar
e-mail (NO SPAM!): tim.rathgen@gmx.de

REAL FANS SUPPORT BANDS BY PURCHASING THEIR CDS!!!


Tunning: Standard

. = Palm-Muted
~ = hold note
^ = vibrate
p = pull off
h = hammer on
/ = slide up
\ = slide down

"""Intro"""
NO BASS!

Notes used:
G---------------------------------------------|
D---4---3---------------4----------------4----|
A-----------6---4---2-------2---4-------------|
E---------------------------------------------|

"""Interlude"""   0:25
Version 1
G-------------------------------------------|
D-------------------------------------------|
A-------------------------------------------|
E----2-2-2---2--2----1--1--1---2------------|

Version 2
G-------------------------------------------|
D----4-4-4---4--4----3--3--3---4------------|
A-------------------------------------------|
E-------------------------------------------|

Version 3
G-------------------------------------------|
D--------------------3--3--3---4------------|
A------------4--4---------------------------|
E----2-2-2----------------------------------|

Version 4
G-------------------------------------------|
D----4-4-4-----------3--3--3---4------------|
A------------4--4---------------------------|
E-------------------------------------------|

"""Verse"""   0:45
G---------------------------------------------------------------------------|
D---444-444-444-444---------------------------------------------------------|
A--------------------666-666-666-666--222-222-222-222--444-444-444-444------|
E---------------------------------------------------------------------------|

G---------------------------------------------------------------------------|
D---444-444-444-444---------------------------------------------666-666-----|
A--------------------666-666-666-666--222-222-222-222--444-444--------------|
E---------------------------------------------------------------------------|

"""Pre-Chorus"""   1:01
G-------------------------------------------------------------|
D------8-----8-----8-----8--------4-----4-----4-----4---------|
A---66----66----66----66-------22----22----22----22-----------|
E-------------------------------------------------------------|

G------6-----6-----6-----6------------------------------------|
D---44----44----44----44----------6-----6-----6-----6---------|
A------------------------------44----44----44----44-----------|
E-------------------------------------------------------------|

"""Interlude II"""     1:19
G-------------------------------------------------------|
D----11~--------13~--------------11~--------13~---------|
A-------------------------------------------------------|
E-------------------------------------------------------|

"""Chorus"""     1:27
G--------------------------------------------------------------------------|
D---------------------------------------------------------------4-4--3-3---|
A----666-666-666-666--222-222-222-222--------------------------------------|
E--------------------------------------222-222-222-222--111-111------------|

or

G-----------------------------------------------------------------------------|
D-------------------------------------------------------------------4444-3333-|
A--66666666-66666666--22222222-22222222---------------------------------------|
E----------------------------------------22222222-22222222--11111111----------|


and the 2. time:
G---------------------------------------------------------------------------|
D---------------------------------------------------------------------------|
A----666-666-666-666--222-222-222-222-------------------111-111-111-111-----|
E--------------------------------------222-222-222-222----------------------|

or

G-----------------------------------------------------------------------------|
D-----------------------------------------------------------------------------|
A--66666666-66666666--22222222-22222222---------------------11111111-11111111-|
E----------------------------------------22222222-22222222--------------------|

"""Post-Chorus"""     1:45
G---------------------------------------------------------------------|
D------------------------------------------------------4--4--444------|
A--2--2--222------------2--2--222------------2--2--222----------------|
E------------2--2--222------------2--2--222---------------------------|

G--------------------------------|
D--------------------------------|
A--444-444-444-444---------------|
E--------------------------------|

"""Interlude III"""
NO BASS!

"""Verse and Pre-Chorus"""
!!!REPEAT!!!

"""Interlude II"""
G-------------------------------------------------|
D----------------------------11~------13~---------|
A--(Skip first 2 notes)---------------------------|
E-------------------------------------------------|

"""Interlude II, Chorus and Post-Chorus"""
!!!REPEAT!!!

"""Post-Chorus""" one more time!
!!!REPEAT!!!

"""Outro"""    3:15
NO BASS!


And thats it!  I Hope this helped, please rate, comment and correct me!

Cheers...
Suggest correction
comments
print report bad tab
1 comment total.
0 reply
RocknRollKing 10 May 25, 2010 11:58 AM

def best tab around 5*

guest
You may want to rate the tab now too:
select rating
Wanna post a correction for this tab? Suggest correction